  0
SECTION
  2
HEADER
  9
$ACADVER
  1
AC1014
  9
$ACADMAINTVER
 70
     5
  9
$DWGCODEPAGE
  3
ANSI_1252
  9
$INSBASE
 10
-722.444363
 20
343.6
 30
0.0
  9
$EXTMIN
 10
-916.130304
 20
343.442511
 30
-0.000026
  9
$EXTMAX
 10
-402.965962
 20
1050.050175
 30
0.421783
  9
$LIMMIN
 10
0.0
 20
0.0
  9
$LIMMAX
 10
3360.0
 20
2376.0
  9
$ORTHOMODE
 70
     1
  9
$REGENMODE
 70
     1
  9
$FILLMODE
 70
     1
  9
$QTEXTMODE
 70
     0
  9
$MIRRTEXT
 70
     0
  9
$DRAGMODE
 70
     2
  9
$LTSCALE
 40
1.0
  9
$OSMODE
 70
     0
  9
$ATTMODE
 70
     1
  9
$TEXTSIZE
 40
3.5
  9
$TRACEWID
 40
0.05
  9
$TEXTSTYLE
  7
ROMANS
  9
$CLAYER
  8
035-DWG
  9
$CELTYPE
  6
BYLAYER
  9
$CECOLOR
 62
   256
  9
$CELTSCALE
 40
1.0
  9
$DELOBJ
 70
     1
  9
$DISPSILH
 70
     0
  9
$DIMSCALE
 40
8.0
  9
$DIMASZ
 40
2.5
  9
$DIMEXO
 40
1.5
  9
$DIMDLI
 40
5.0
  9
$DIMRND
 40
0.0
  9
$DIMDLE
 40
0.0
  9
$DIMEXE
 40
1.0
  9
$DIMTP
 40
0.0
  9
$DIMTM
 40
0.0
  9
$DIMTXT
 40
3.0
  9
$DIMCEN
 40
-2.0
  9
$DIMTSZ
 40
0.0
  9
$DIMTOL
 70
     0
  9
$DIMLIM
 70
     0
  9
$DIMTIH
 70
     0
  9
$DIMTOH
 70
     0
  9
$DIMSE1
 70
     0
  9
$DIMSE2
 70
     0
  9
$DIMTAD
 70
     1
  9
$DIMZIN
 70
     8
  9
$DIMBLK
  1

  9
$DIMASO
 70
     1
  9
$DIMSHO
 70
     1
  9
$DIMPOST
  1

  9
$DIMAPOST
  1

  9
$DIMALT
 70
     0
  9
$DIMALTD
 70
     2
  9
$DIMALTF
 40
25.4
  9
$DIMLFAC
 40
1.0
  9
$DIMTOFL
 70
     1
  9
$DIMTVP
 40
0.0
  9
$DIMTIX
 70
     0
  9
$DIMSOXD
 70
     0
  9
$DIMSAH
 70
     0
  9
$DIMBLK1
  1

  9
$DIMBLK2
  1

  9
$DIMSTYLE
  2
STANDAARD
  9
$DIMCLRD
 70
   256
  9
$DIMCLRE
 70
   256
  9
$DIMCLRT
 70
   256
  9
$DIMTFAC
 40
0.75
  9
$DIMGAP
 40
1.5
  9
$DIMJUST
 70
     0
  9
$DIMSD1
 70
     0
  9
$DIMSD2
 70
     0
  9
$DIMTOLJ
 70
     1
  9
$DIMTZIN
 70
     8
  9
$DIMALTZ
 70
     8
  9
$DIMALTTZ
 70
     8
  9
$DIMFIT
 70
     3
  9
$DIMUPT
 70
     0
  9
$DIMUNIT
 70
     2
  9
$DIMDEC
 70
     0
  9
$DIMTDEC
 70
     1
  9
$DIMALTU
 70
     2
  9
$DIMALTTD
 70
     2
  9
$DIMTXSTY
  7
ROMANS
  9
$DIMAUNIT
 70
     0
  9
$LUNITS
 70
     2
  9
$LUPREC
 70
     4
  9
$SKETCHINC
 40
0.1
  9
$FILLETRAD
 40
1.0
  9
$AUNITS
 70
     0
  9
$AUPREC
 70
     4
  9
$MENU
  1
wtb2
  9
$ELEVATION
 40
0.0
  9
$PELEVATION
 40
0.0
  9
$THICKNESS
 40
0.0
  9
$LIMCHECK
 70
     0
  9
$BLIPMODE
 70
     0
  9
$CHAMFERA
 40
0.0
  9
$CHAMFERB
 40
0.0
  9
$CHAMFERC
 40
0.0
  9
$CHAMFERD
 40
0.0
  9
$SKPOLY
 70
     0
  9
$TDCREATE
 40
2451578.409790035
  9
$TDUPDATE
 40
2452584.355191053
  9
$TDINDWG
 40
2.5832886574
  9
$TDUSRTIMER
 40
2.5832886574
  9
$USRTIMER
 70
     1
  9
$ANGBASE
 50
0.0
  9
$ANGDIR
 70
     0
  9
$PDMODE
 70
     3
  9
$PDSIZE
 40
0.0
  9
$PLINEWID
 40
0.0
  9
$COORDS
 70
     2
  9
$SPLFRAME
 70
     0
  9
$SPLINETYPE
 70
     6
  9
$SPLINESEGS
 70
     8
  9
$ATTDIA
 70
     0
  9
$ATTREQ
 70
     1
  9
$HANDLING
 70
     1
  9
$HANDSEED
  5
3CC
  9
$SURFTAB1
 70
     6
  9
$SURFTAB2
 70
     6
  9
$SURFTYPE
 70
     6
  9
$SURFU
 70
     6
  9
$SURFV
 70
     6
  9
$UCSNAME
  2

  9
$UCSORG
 10
0.0
 20
0.0
 30
0.0
  9
$UCSXDIR
 10
1.0
 20
0.0
 30
0.0
  9
$UCSYDIR
 10
0.0
 20
1.0
 30
0.0
  9
$PUCSNAME
  2

  9
$PUCSORG
 10
0.0
 20
0.0
 30
0.0
  9
$PUCSXDIR
 10
1.0
 20
0.0
 30
0.0
  9
$PUCSYDIR
 10
0.0
 20
1.0
 30
0.0
  9
$USERI1
 70
     0
  9
$USERI2
 70
     0
  9
$USERI3
 70
     0
  9
$USERI4
 70
     0
  9
$USERI5
 70
     0
  9
$USERR1
 40
0.0
  9
$USERR2
 40
0.0
  9
$USERR3
 40
0.0
  9
$USERR4
 40
0.0
  9
$USERR5
 40
0.0
  9
$WORLDVIEW
 70
     1
  9
$SHADEDGE
 70
     3
  9
$SHADEDIF
 70
    70
  9
$TILEMODE
 70
     1
  9
$MAXACTVP
 70
    16
  9
$PINSBASE
 10
0.0
 20
0.0
 30
0.0
  9
$PLIMCHECK
 70
     0
  9
$PEXTMIN
 10
1.000000E+20
 20
1.000000E+20
 30
1.000000E+20
  9
$PEXTMAX
 10
-1.000000E+20
 20
-1.000000E+20
 30
-1.000000E+20
  9
$PLIMMIN
 10
0.0
 20
0.0
  9
$PLIMMAX
 10
12.0
 20
9.0
  9
$UNITMODE
 70
     0
  9
$VISRETAIN
 70
     0
  9
$PLINEGEN
 70
     0
  9
$PSLTSCALE
 70
     0
  9
$TREEDEPTH
 70
  3020
  9
$PICKSTYLE
 70
     1
  9
$CMLSTYLE
  2
STANDARD
  9
$CMLJUST
 70
     0
  9
$CMLSCALE
 40
1.0
  9
$PROXYGRAPHICS
 70
     1
  9
$MEASUREMENT
 70
     0
  0
ENDSEC
  0
SECTION
  2
CLASSES
  0
CLASS
  1
LWPOLYLINE
  2
AcDbPolyline
  3
"AutoCAD"
 90
        0
280
     0
281
     1
  0
CLASS
  1
HATCH
  2
AcDbHatch
  3
"ACAD_SEDONA"
 90
        0
280
     0
281
     1
  0
CLASS
  1
ACMDATUMID
  2
AcmDatumId
  3
AutoCadMServices
 90
      255
280
     1
281
     1
  0
CLASS
  1
ACMFCFRAME
  2
AcmFCF
  3
AutoCadMServices
 90
      255
280
     1
281
     1
  0
CLASS
  1
AMLOADER
  2
AMLoader
  3
AMAcad
 90
        0
280
     0
281
     0
  0
ENDSEC
  0
SECTION
  2
TABLES
  0
TABLE
  2
VPORT
  5
12
100
AcDbSymbolTable
 70
     2
  0
VPORT
  5
3CB
100
AcDbSymbolTableRecord
100
AcDbViewportTableRecord
  2
*ACTIVE
 70
     0
 10
0.0
 20
0.0
 11
1.0
 21
1.0
 12
-659.548133
 22
696.746343
 13
0.0
 23
0.0
 14
20.0
 24
20.0
 15
40.0
 25
40.0
 16
0.0
 26
0.0
 36
1.0
 17
0.0
 27
0.0
 37
0.0
 40
714.561972
 41
1.650376
 42
50.0
 43
0.0
 44
0.0
 50
0.0
 51
0.0
 71
     0
 72
 20000
 73
     1
 74
     0
 75
     0
 76
     0
 77
     0
 78
     1
  0
ENDTAB
  0
TABLE
  2
LTYPE
  5
D
100
AcDbSymbolTable
 70
     1
  0
LTYPE
  5
E
100
AcDbSymbolTableRecord
100
AcDbLinetypeTableRecord
  2
BYBLOCK
 70
     0
  3

 72
    65
 73
     0
 40
0.0
  0
LTYPE
  5
F
100
AcDbSymbolTableRecord
100
AcDbLinetypeTableRecord
  2
BYLAYER
 70
     0
  3

 72
    65
 73
     0
 40
0.0
  0
LTYPE
  5
5
100
AcDbSymbolTableRecord
100
AcDbLinetypeTableRecord
  2
CONTINUOUS
 70
     0
  3
Solid line
 72
    65
 73
     0
 40
0.0
  0
ENDTAB
  0
TABLE
  2
LAYER
  5
A
100
AcDbSymbolTable
 70
     3
  0
LAYER
  5
4
100
AcDbSymbolTableRecord
100
AcDbLayerTableRecord
  2
0
 70
     0
 62
     8
  6
CONTINUOUS
  0
LAYER
  5
20
100
AcDbSymbolTableRecord
100
AcDbLayerTableRecord
  2
025-DWG
 70
     0
 62
     7
  6
CONTINUOUS
  0
LAYER
  5
1B
100
AcDbSymbolTableRecord
100
AcDbLayerTableRecord
  2
035-DWG
 70
     0
 62
     2
  6
CONTINUOUS
  0
ENDTAB
  0
TABLE
  2
STYLE
  5
B
100
AcDbSymbolTable
 70
     2
  0
STYLE
  5
C
100
AcDbSymbolTableRecord
100
AcDbTextStyleTableRecord
  2
STANDARD
 70
     0
 40
0.0
 41
1.0
 50
0.0
 71
     0
 42
15.0
  3
txt
  4

  0
STYLE
  5
1C
100
AcDbSymbolTableRecord
100
AcDbTextStyleTableRecord
  2
ROMANS
 70
     0
 40
0.0
 41
1.0
 50
0.0
 71
     0
 42
3.5
  3
romans
  4

  0
ENDTAB
  0
TABLE
  2
VIEW
  5
10
100
AcDbSymbolTable
 70
     0
  0
ENDTAB
  0
TABLE
  2
UCS
  5
11
100
AcDbSymbolTable
 70
     0
  0
ENDTAB
  0
TABLE
  2
APPID
  5
14
100
AcDbSymbolTable
 70
     1
  0
APPID
  5
15
100
AcDbSymbolTableRecord
100
AcDbRegAppTableRecord
  2
ACAD
 70
     0
  0
ENDTAB
  0
TABLE
  2
DIMSTYLE
  5
16
100
AcDbSymbolTable
 70
     1
  0
DIMSTYLE
105
1E
100
AcDbSymbolTableRecord
100
AcDbDimStyleTableRecord
  2
STANDAARD
 70
     0
  3

  4

  5

  6

  7

 40
8.0
 41
2.5
 42
1.5
 43
5.0
 44
1.0
 45
0.0
 46
0.0
 47
0.0
 48
0.0
140
3.0
141
-2.0
142
0.0
143
25.4
144
1.0
145
0.0
146
0.75
147
1.5
 71
     0
 72
     0
 73
     0
 74
     0
 75
     0
 76
     0
 77
     1
 78
     8
170
     0
171
     2
172
     1
173
     0
174
     0
175
     0
176
   256
177
   256
178
   256
270
     2
271
     0
272
     1
273
     2
274
     2
340
1C
275
     0
280
     0
281
     0
282
     0
283
     1
284
     8
285
     8
286
     8
287
     3
288
     0
  0
ENDTAB
  0
TABLE
  2
BLOCK_RECORD
  5
1
100
AcDbSymbolTable
 70
     0
  0
BLOCK_RECORD
  5
2
100
AcDbSymbolTableRecord
100
AcDbBlockTableRecord
  2
*MODEL_SPACE
  0
BLOCK_RECORD
  5
7
100
AcDbSymbolTableRecord
100
AcDbBlockTableRecord
  2
*PAPER_SPACE
  0
ENDTAB
  0
ENDSEC
  0
SECTION
  2
BLOCKS
  0
BLOCK
  5
3
100
AcDbEntity
  8
0
100
AcDbBlockBegin
  2
*MODEL_SPACE
 70
     0
 10
0.0
 20
0.0
 30
0.0
  3
*MODEL_SPACE
  1

  0
ENDBLK
  5
6
100
AcDbEntity
  8
0
100
AcDbBlockEnd
  0
BLOCK
  5
8
100
AcDbEntity
 67
     1
  8
0
100
AcDbBlockBegin
  2
*PAPER_SPACE
 70
     0
 10
0.0
 20
0.0
 30
0.0
  3
*PAPER_SPACE
  1

  0
ENDBLK
  5
9
100
AcDbEntity
 67
     1
  8
0
100
AcDbBlockEnd
  0
ENDSEC
  0
SECTION
  2
ENTITIES
  0
LINE
  5
1F
100
AcDbEntity
  8
025-DWG
100
AcDbLine
 10
-535.073523
 20
538.7
 30
0.0
 11
-535.073523
 21
384.4
 31
0.0
  0
LINE
  5
21
100
AcDbEntity
  8
025-DWG
100
AcDbLine
 10
-535.509989
 20
384.4
 30
0.0
 11
-535.509989
 21
538.7
 31
0.0
  0
LINE
  5
22
100
AcDbEntity
  8
035-DWG
100
AcDbLine
 10
-537.763705
 20
384.4
 30
0.0
 11
-537.763705
 21
538.7
 31
0.0
  0
LINE
  5
23
100
AcDbEntity
  8
035-DWG
100
AcDbLine
 10
-534.094363
 20
531.560317
 30
0.0
 11
-534.094363
 21
384.4
 31
0.0
  0
LINE
  5
24
100
AcDbEntity
  8
035-DWG
100
AcDbLine
 10
-908.194363
 20
383.3
 30
0.0
 11
-908.194363
 21
838.169091
 31
0.0
  0
LINE
  5
25
100
AcDbEntity
  8
035-DWG
100
AcDbLine
 10
-536.694363
 20
383.3
 30
0.0
 11
-908.194363
 21
383.3
 31
0.0
  0
LINE
  5
26
100
AcDbEntity
  8
035-DWG
100
AcDbLine
 10
-541.744363
 20
345.3
 30
0.0
 11
-903.144363
 21
345.3
 31
0.0
  0
LINE
  5
27
100
AcDbEntity
  8
025-DWG
100
AcDbLine
 10
-537.944363
 20
375.3
 30
0.0
 11
-906.944363
 21
375.3
 31
0.0
  0
LINE
  5
28
100
AcDbEntity
  8
035-DWG
100
AcDbLine
 10
-906.944363
 20
375.3
 30
0.0
 11
-906.944363
 21
349.1
 31
0.0
  0
ARC
  5
29
100
AcDbEntity
  8
035-DWG
100
AcDbCircle
 10
-903.144363
 20
349.1
 30
0.0
 40
3.8
100
AcDbArc
 50
180.0
 51
270.0
  0
ARC
  5
2A
100
AcDbEntity
  8
035-DWG
100
AcDbCircle
 10
-806.794363
 20
353.1
 30
0.0
 40
9.5
100
AcDbArc
 50
235.190305
 51
304.809695
  0
ARC
  5
2B
100
AcDbEntity
  8
035-DWG
100
AcDbCircle
 10
-906.944363
 20
379.3
 30
0.0
 40
4.0
100
AcDbArc
 50
90.0
 51
270.0
  0
LINE
  5
2C
100
AcDbEntity
  8
035-DWG
100
AcDbLine
 10
-537.944363
 20
375.3
 30
0.0
 11
-537.944363
 21
349.1
 31
0.0
  0
ARC
  5
2D
100
AcDbEntity
  8
035-DWG
100
AcDbCircle
 10
-553.744363
 20
353.1
 30
0.0
 40
9.5
100
AcDbArc
 50
235.190305
 51
304.809695
  0
ARC
  5
2E
100
AcDbEntity
  8
035-DWG
100
AcDbCircle
 10
-541.744363
 20
349.1
 30
0.0
 40
3.8
100
AcDbArc
 50
270.0
 51
360.0
  0
ARC
  5
2F
100
AcDbEntity
  8
035-DWG
100
AcDbCircle
 10
-537.944363
 20
379.3
 30
0.0
 40
4.0
100
AcDbArc
 50
270.0
 51
90.0
  0
LINE
  5
30
100
AcDbEntity
  8
035-DWG
100
AcDbLine
 10
-535.570923
 20
383.9
 30
0.0
 11
-534.594363
 21
383.9
 31
0.0
  0
LINE
  5
31
100
AcDbEntity
  8
025-DWG
100
AcDbLine
 10
-534.094363
 20
384.4
 30
0.0
 11
-535.073523
 21
384.4
 31
0.0
  0
ELLIPSE
  5
32
100
AcDbEntity
  8
025-DWG
100
AcDbEllipse
 10
-535.570923
 20
384.4
 30
0.0
 11
0.0
 21
0.5
 31
0.0
210
0.0
220
0.0
230
-1.0
 40
0.121869
 41
1.570796326794406
 42
3.141592653589302
  0
ELLIPSE
  5
33
100
AcDbEntity
  8
025-DWG
100
AcDbEllipse
 10
-535.570923
 20
384.4
 30
0.0
 11
0.0
 21
-0.5
 31
0.0
210
0.0
220
0.0
230
-1.0
 40
0.9948
 41
-1.570796326794896
 42
-0.0000000000000022
  0
LINE
  5
34
100
AcDbEntity
  8
025-DWG
100
AcDbLine
 10
-535.073523
 20
384.4
 30
0.0
 11
-535.509989
 21
384.4
 31
0.0
  0
ARC
  5
35
100
AcDbEntity
  8
035-DWG
100
AcDbCircle
 10
-534.594363
 20
384.4
 30
0.0
 40
0.5
100
AcDbArc
 50
270.0
 51
0.0
  0
LWPOLYLINE
  5
36
100
AcDbEntity
  8
035-DWG
100
AcDbPolyline
 90
       17
 70
     0
 43
0.0
 10
-537.709404
 20
383.9
 10
-537.714535
 20
383.902367
 10
-537.719756
 20
383.909507
 10
-537.724971
 20
383.921475
 10
-537.730082
 20
383.938327
 10
-537.734999
 20
383.960004
 10
-537.739645
 20
383.985982
 10
-537.743952
 20
384.015619
 10
-537.747849
 20
384.048274
 10
-537.751292
 20
384.08337
 10
-537.75444
 20
384.122297
 10
-537.757218
 20
384.164465
 10
-537.759549
 20
384.209283
 10
-537.761369
 20
384.25611
 10
-537.762668
 20
384.304102
 10
-537.763446
 20
384.352364
 10
-537.763705
 20
384.4
  0
LINE
  5
37
100
AcDbEntity
  8
035-DWG
100
AcDbLine
 10
-535.570923
 20
383.9
 30
0.0
 11
-537.709404
 21
383.9
 31
0.0
  0
LINE
  5
38
100
AcDbEntity
  8
025-DWG
100
AcDbLine
 10
-537.763705
 20
384.4
 30
0.0
 11
-535.509989
 21
384.4
 31
0.0
  0
LINE
  5
39
100
AcDbEntity
  8
035-DWG
100
AcDbLine
 10
-536.694363
 20
383.9
 30
0.0
 11
-536.694363
 21
383.3
 31
0.0
  0
LWPOLYLINE
  5
3A
100
AcDbEntity
  8
025-DWG
  6
CONTINUOUS
100
AcDbPolyline
 90
        3
 70
   128
 43
0.0
 10
-784.639914
 20
961.326258
 10
-778.604471
 20
965.331898
 10
-772.531619
 20
969.19469
  0
LWPOLYLINE
  5
3B
100
AcDbEntity
  8
025-DWG
  6
CONTINUOUS
100
AcDbPolyline
 90
        4
 70
   128
 43
0.0
 10
-779.611102
 20
939.770451
 10
-779.260977
 20
940.848315
 10
-777.8605
 20
945.159375
 10
-772.597634
 20
961.35215
  0
LINE
  5
3C
100
AcDbEntity
  8
025-DWG
  6
CONTINUOUS
100
AcDbLine
 10
-773.645347
 20
962.194079
 30
0.0
 11
-780.662725
 21
940.612144
 31
0.0
  0
LINE
  5
3D
100
AcDbEntity
  8
035-DWG
100
AcDbLine
 10
-535.444363
 20
838.169091
 30
0.0
 11
-909.444363
 21
838.169091
 31
0.0
  0
LINE
  5
3E
100
AcDbEntity
  8
035-DWG
100
AcDbLine
 10
-538.744363
 20
853.169091
 30
0.0
 11
-906.144363
 21
853.169091
 31
0.0
  0
LINE
  5
3F
100
AcDbEntity
  8
035-DWG
100
AcDbLine
 10
-542.444363
 20
854.369091
 30
0.0
 11
-902.444363
 21
854.369091
 31
0.0
  0
LINE
  5
40
100
AcDbEntity
  8
035-DWG
100
AcDbLine
 10
-531.494363
 20
1002.669091
 30
0.0
 11
-913.394363
 21
1002.669091
 31
0.0
  0
LINE
  5
41
100
AcDbEntity
  8
035-DWG
100
AcDbLine
 10
-529.494363
 20
994.669091
 30
0.0
 11
-915.394363
 21
994.669091
 31
0.0
  0
LWPOLYLINE
  5
42
100
AcDbEntity
  8
035-DWG
  6
CONTINUOUS
100
AcDbPolyline
 90
       19
 70
   128
 43
0.0
 10
-661.839205
 20
921.938182
 10
-668.122552
 20
920.746216
 10
-674.49944
 20
919.672904
 10
-680.95555
 20
918.724554
 10
-687.476565
 20
917.907473
 10
-694.241765
 20
917.209461
 10
-701.06498
 20
916.657841
 10
-707.927621
 20
916.255956
 10
-714.811101
 20
916.007154
 10
-721.565462
 20
915.914119
 10
-728.327472
 20
915.969599
 10
-735.078941
 20
916.172708
 10
-741.801674
 20
916.522565
 10
-748.688508
 20
917.035354
 10
-755.532401
 20
917.699182
 10
-762.315447
 20
918.50891
 10
-769.019733
 20
919.4594
 10
-776.088225
 20
920.625205
 10
-783.049521
 20
921.938182
  0
LINE
  5
43
100
AcDbEntity
  8
025-DWG
100
AcDbLine
 10
-771.247419
 20
970.355427
 30
0.0
 11
-904.744363
 21
970.355427
 31
0.0
  0
LINE
  5
44
100
AcDbEntity
  8
025-DWG
100
AcDbLine
 10
-736.902623
 20
975.355427
 30
0.0
 11
-904.744363
 21
975.355427
 31
0.0
  0
LWPOLYLINE
  5
45
100
AcDbEntity
  8
035-DWG
  6
CONTINUOUS
100
AcDbPolyline
 90
        6
 70
   128
 43
0.0
 10
-780.390831
 20
937.204988
 10
-776.462849
 20
938.279168
 10
-772.496947
 20
939.298813
 10
-768.488937
 20
940.259094
 10
-764.444363
 20
941.152642
 10
-763.274262
 20
941.396449
  0
LWPOLYLINE
  5
46
100
AcDbEntity
  8
025-DWG
  6
CONTINUOUS
100
AcDbPolyline
 90
        5
 70
   128
 43
0.0
 10
-765.291337
 20
943.222491
 10
-768.907365
 20
942.436165
 10
-772.498819
 20
941.59635
 10
-776.068218
 20
940.706171
 10
-779.611102
 20
939.770451
  0
LWPOLYLINE
  5
47
100
AcDbEntity
  8
025-DWG
  6
CONTINUOUS
100
AcDbPolyline
 90
        5
 70
   128
 43
0.0
 10
-755.964618
 20
921.318291
 10
-760.970173
 20
921.924047
 10
-766.911112
 20
922.754251
 10
-772.803328
 20
923.697874
 10
-779.587458
 20
924.934111
  0
LWPOLYLINE
  5
48
100
AcDbEntity
  8
025-DWG
  6
CONTINUOUS
100
AcDbPolyline
 90
        5
 70
   128
 43
0.0
 10
-779.541978
 20
923.977788
 10
-773.205372
 20
922.811242
 10
-767.929546
 20
921.947505
 10
-762.602529
 20
921.173602
 10
-755.938198
 20
920.343228
  0
LWPOLYLINE
  5
49
100
AcDbEntity
  8
035-DWG
  6
CONTINUOUS
100
AcDbPolyline
 90
        3
 70
   128
 43
0.0
 10
-784.140306
 20
962.207819
 10
-778.206982
 20
966.147156
 10
-772.080832
 20
970.044329
  0
LINE
  5
4A
100
AcDbEntity
  8
035-DWG
100
AcDbLine
 10
-841.61888
 20
1041.669091
 30
0.0
 11
-755.744363
 21
1041.669091
 31
0.0
  0
LWPOLYLINE
  5
4B
100
AcDbEntity
  8
025-DWG
  6
CONTINUOUS
100
AcDbPolyline
 90
        3
 70
   128
 43
0.0
 10
-784.639914
 20
735.757167
 10
-778.604471
 20
739.762807
 10
-772.531619
 20
743.625599
  0
LINE
  5
4C
100
AcDbEntity
  8
025-DWG
  6
CONTINUOUS
100
AcDbLine
 10
-773.645347
 20
736.624988
 30
0.0
 11
-780.662725
 21
715.043053
 31
0.0
  0
LWPOLYLINE
  5
4D
100
AcDbEntity
  8
025-DWG
  6
CONTINUOUS
100
AcDbPolyline
 90
        4
 70
   128
 43
0.0
 10
-779.611102
 20
714.20136
 10
-779.260977
 20
715.279224
 10
-777.8605
 20
719.590284
 10
-772.597634
 20
735.783059
  0
LWPOLYLINE
  5
4E
100
AcDbEntity
  8
035-DWG
  6
CONTINUOUS
100
AcDbPolyline
 90
       19
 70
   128
 43
0.0
 10
-661.839205
 20
696.36909
 10
-668.122552
 20
695.177124
 10
-674.49944
 20
694.103813
 10
-680.95555
 20
693.155463
 10
-687.476565
 20
692.338381
 10
-694.241765
 20
691.64037
 10
-701.06498
 20
691.088749
 10
-707.927621
 20
690.686865
 10
-714.811101
 20
690.438063
 10
-721.565462
 20
690.345028
 10
-728.327472
 20
690.400507
 10
-735.078941
 20
690.603617
 10
-741.801674
 20
690.953474
 10
-748.688508
 20
691.466263
 10
-755.532401
 20
692.130091
 10
-762.315447
 20
692.939819
 10
-769.019733
 20
693.890309
 10
-776.088225
 20
695.056114
 10
-783.049521
 20
696.36909
  0
LWPOLYLINE
  5
4F
100
AcDbEntity
  8
025-DWG
  6
CONTINUOUS
100
AcDbPolyline
 90
        5
 70
   128
 43
0.0
 10
-765.291337
 20
717.653399
 10
-768.907365
 20
716.867074
 10
-772.498819
 20
716.027258
 10
-776.068218
 20
715.13708
 10
-779.611102
 20
714.20136
  0
LWPOLYLINE
  5
50
100
AcDbEntity
  8
035-DWG
  6
CONTINUOUS
100
AcDbPolyline
 90
        6
 70
   128
 43
0.0
 10
-780.390831
 20
711.635897
 10
-776.462849
 20
712.710076
 10
-772.496947
 20
713.729722
 10
-768.488937
 20
714.690003
 10
-764.444363
 20
715.583551
 10
-763.274262
 20
715.827358
  0
LWPOLYLINE
  5
51
100
AcDbEntity
  8
025-DWG
  6
CONTINUOUS
100
AcDbPolyline
 90
        5
 70
   128
 43
0.0
 10
-779.541978
 20
698.408697
 10
-773.205372
 20
697.24215
 10
-767.929546
 20
696.378413
 10
-762.602529
 20
695.604511
 10
-755.938198
 20
694.774137
  0
LWPOLYLINE
  5
52
100
AcDbEntity
  8
025-DWG
  6
CONTINUOUS
100
AcDbPolyline
 90
        5
 70
   128
 43
0.0
 10
-755.964618
 20
695.7492
 10
-760.970173
 20
696.354955
 10
-766.911112
 20
697.18516
 10
-772.803328
 20
698.128783
 10
-779.587458
 20
699.36502
  0
LWPOLYLINE
  5
53
100
AcDbEntity
  8
035-DWG
  6
CONTINUOUS
100
AcDbPolyline
 90
        3
 70
   128
 43
0.0
 10
-784.140306
 20
736.638728
 10
-778.206982
 20
740.578065
 10
-772.080832
 20
744.475238
  0
LINE
  5
54
100
AcDbEntity
  8
035-DWG
  6
CONTINUOUS
100
AcDbLine
 10
-784.639914
 20
698.197255
 30
0.0
 11
-784.639914
 21
735.757167
 31
0.0
  0
LINE
  5
55
100
AcDbEntity
  8
025-DWG
  6
CONTINUOUS
100
AcDbLine
 10
-781.082566
 20
711.635897
 30
0.0
 11
-781.082566
 21
700.286751
 31
0.0
  0
LINE
  5
56
100
AcDbEntity
  8
035-DWG
  6
CONTINUOUS
100
AcDbLine
 10
-780.390831
 20
700.286751
 30
0.0
 11
-780.390831
 21
711.635897
 31
0.0
  0
LWPOLYLINE
  5
57
100
AcDbEntity
  8
035-DWG
  6
CONTINUOUS
100
AcDbPolyline
 90
        5
 70
   128
 43
0.0
 10
-783.049521
 20
696.36909
 10
-783.733389
 20
696.630994
 10
-784.289544
 20
697.132481
 10
-784.578836
 20
697.731177
 10
-784.639914
 20
698.197255
  0
LINE
  5
58
100
AcDbEntity
  8
025-DWG
  6
CONTINUOUS
100
AcDbLine
 10
-781.082566
 20
700.286751
 30
0.0
 11
-784.639914
 21
698.197255
 31
0.0
  0
LWPOLYLINE
  5
59
100
AcDbEntity
  8
025-DWG
  6
CONTINUOUS
100
AcDbPolyline
 90
        5
 70
   128
 43
0.0
 10
-779.587458
 20
699.36502
 10
-779.925859
 20
699.491653
 10
-780.202395
 20
699.733671
 10
-780.353824
 20
700.029531
 10
-780.390831
 20
700.286751
  0
LWPOLYLINE
  5
5A
100
AcDbEntity
  8
025-DWG
  6
CONTINUOUS
100
AcDbPolyline
 90
        9
 70
   128
 43
0.0
 10
-779.587458
 20
699.36502
 10
-779.612886
 20
699.201441
 10
-779.629728
 20
699.042425
 10
-779.637514
 20
698.892405
 10
-779.636027
 20
698.755567
 10
-779.625307
 20
698.635726
 10
-779.605655
 20
698.536225
 10
-779.577618
 20
698.459838
 10
-779.541978
 20
698.408697
  0
LINE
  5
5B
100
AcDbEntity
  8
025-DWG
  6
CONTINUOUS
100
AcDbLine
 10
-780.390831
 20
700.286751
 30
0.0
 11
-781.082566
 21
700.286751
 31
0.0
  0
LWPOLYLINE
  5
5C
100
AcDbEntity
  8
025-DWG
  6
CONTINUOUS
100
AcDbPolyline
 90
        5
 70
   128
 43
0.0
 10
-781.082566
 20
700.286751
 10
-780.965728
 20
699.650694
 10
-780.644947
 20
699.089895
 10
-780.155722
 20
698.662316
 10
-779.541978
 20
698.408697
  0
LWPOLYLINE
  5
5D
100
AcDbEntity
  8
025-DWG
  6
CONTINUOUS
100
AcDbPolyline
 90
        4
 70
   128
 43
0.0
 10
-783.049521
 20
696.36909
 10
-782.524214
 20
696.67165
 10
-780.941436
 20
697.589454
 10
-779.541978
 20
698.408697
  0
LWPOLYLINE
  5
5E
100
AcDbEntity
  8
025-DWG
  6
CONTINUOUS
100
AcDbPolyline
 90
        9
 70
   128
 43
0.0
 10
-779.611102
 20
714.20136
 10
-779.799245
 20
714.223041
 10
-779.983198
 20
714.27468
 10
-780.156242
 20
714.35439
 10
-780.312054
 20
714.45926
 10
-780.444942
 20
714.585458
 10
-780.55005
 20
714.728373
 10
-780.62354
 20
714.882786
 10
-780.662725
 20
715.043053
  0
LINE
  5
5F
100
AcDbEntity
  8
025-DWG
  6
CONTINUOUS
100
AcDbLine
 10
-780.390831
 20
711.635897
 30
0.0
 11
-781.082566
 21
711.635897
 31
0.0
  0
LWPOLYLINE
  5
60
100
AcDbEntity
  8
025-DWG
  6
CONTINUOUS
100
AcDbPolyline
 90
        7
 70
   128
 43
0.0
 10
-780.662725
 20
715.043053
 10
-780.80688
 20
714.503249
 10
-780.931361
 20
713.815541
 10
-781.011416
 20
713.14869
 10
-781.064871
 20
712.391584
 10
-781.078004
 20
712.018366
 10
-781.082566
 20
711.635897
  0
LWPOLYLINE
  5
61
100
AcDbEntity
  8
025-DWG
  6
CONTINUOUS
100
AcDbPolyline
 90
        7
 70
   128
 43
0.0
 10
-780.390831
 20
711.635897
 10
-780.340493
 20
712.041013
 10
-780.267316
 20
712.442185
 10
-780.146263
 20
712.930788
 10
-779.998534
 20
713.385302
 10
-779.814978
 20
713.824898
 10
-779.611102
 20
714.20136
  0
LWPOLYLINE
  5
62
100
AcDbEntity
  8
035-DWG
  6
CONTINUOUS
100
AcDbPolyline
 90
        5
 70
   128
 43
0.0
 10
-784.639914
 20
735.757167
 10
-784.592359
 20
736.053854
 10
-784.458905
 20
736.325006
 10
-784.228857
 20
736.575
 10
-784.135109
 20
736.629726
  0
ARC
  5
63
100
AcDbEntity
  8
035-DWG
100
AcDbCircle
 10
-913.394363
 20
1000.669091
 30
0.0
 40
2.0
100
AcDbArc
 50
90.0
 51
180.0
  0
LINE
  5
64
100
AcDbEntity
  8
035-DWG
100
AcDbLine
 10
-905.244363
 20
857.169091
 30
0.0
 11
-905.244363
 21
969.593525
 31
0.0
  0
ARC
  5
65
100
AcDbEntity
  8
035-DWG
100
AcDbCircle
 10
-902.444363
 20
857.169091
 30
0.0
 40
2.8
100
AcDbArc
 50
180.0
 51
270.0
  0
ARC
  5
66
100
AcDbEntity
  8
035-DWG
100
AcDbCircle
 10
-906.144363
 20
849.869091
 30
0.0
 40
3.3
100
AcDbArc
 50
90.0
 51
180.0
  0
LINE
  5
67
100
AcDbEntity
  8
035-DWG
100
AcDbLine
 10
-909.444363
 20
849.869091
 30
0.0
 11
-909.444363
 21
838.169091
 31
0.0
  0
ARC
  5
68
100
AcDbEntity
  8
035-DWG
100
AcDbCircle
 10
-890.944363
 20
852.369091
 30
0.0
 40
2.0
100
AcDbArc
 50
23.578178
 51
90.0
  0
ARC
  5
69
100
AcDbEntity
  8
035-DWG
100
AcDbCircle
 10
-895.444363
 20
856.969091
 30
0.0
 40
3.8
100
AcDbArc
 50
237.363102
 51
302.636898
  0
ARC
  5
6A
100
AcDbEntity
  8
035-DWG
100
AcDbCircle
 10
-891.345583
 20
850.569091
 30
0.0
 40
3.8
100
AcDbArc
 50
90.0
 51
122.636898
  0
ARC
  5
6B
100
AcDbEntity
  8
035-DWG
100
AcDbCircle
 10
-899.543143
 20
850.569091
 30
0.0
 40
3.8
100
AcDbArc
 50
57.363102
 51
90.0
  0
ARC
  5
6C
100
AcDbEntity
  8
035-DWG
100
AcDbCircle
 10
-904.744363
 20
972.855427
 30
0.0
 40
2.5
100
AcDbArc
 50
270.0
 51
90.0
  0
LINE
  5
6D
100
AcDbEntity
  8
035-DWG
100
AcDbLine
 10
-905.244363
 20
975.355427
 30
0.0
 11
-905.244363
 21
994.669091
 31
0.0
  0
LINE
  5
6E
100
AcDbEntity
  8
035-DWG
100
AcDbLine
 10
-904.744363
 20
970.355427
 30
0.0
 11
-905.244363
 21
970.355427
 31
0.0
  0
LINE
  5
6F
100
AcDbEntity
  8
035-DWG
100
AcDbLine
 10
-905.244363
 20
969.593525
 30
0.0
 11
-905.244363
 21
970.355427
 31
0.0
  0
LINE
  5
70
100
AcDbEntity
  8
035-DWG
100
AcDbLine
 10
-905.244363
 20
968.969091
 30
0.0
 11
-905.244363
 21
969.593525
 31
0.0
  0
LINE
  5
71
100
AcDbEntity
  8
035-DWG
100
AcDbLine
 10
-904.744363
 20
975.355427
 30
0.0
 11
-905.244363
 21
975.355427
 31
0.0
  0
LINE
  5
72
100
AcDbEntity
  8
035-DWG
100
AcDbLine
 10
-915.394363
 20
994.669091
 30
0.0
 11
-915.394363
 21
1000.669091
 31
0.0
  0
LINE
  5
73
100
AcDbEntity
  8
035-DWG
  6
CONTINUOUS
100
AcDbLine
 10
-784.639914
 20
923.766347
 30
0.0
 11
-784.639914
 21
961.326258
 31
0.0
  0
LWPOLYLINE
  5
74
100
AcDbEntity
  8
025-DWG
  6
CONTINUOUS
100
AcDbPolyline
 90
        7
 70
   128
 43
0.0
 10
-780.390831
 20
937.204988
 10
-780.340493
 20
937.610104
 10
-780.267316
 20
938.011276
 10
-780.146263
 20
938.499879
 10
-779.998534
 20
938.954393
 10
-779.814978
 20
939.393989
 10
-779.611102
 20
939.770451
  0
LWPOLYLINE
  5
75
100
AcDbEntity
  8
025-DWG
  6
CONTINUOUS
100
AcDbPolyline
 90
        7
 70
   128
 43
0.0
 10
-780.662725
 20
940.612144
 10
-780.80688
 20
940.07234
 10
-780.931361
 20
939.384632
 10
-781.011416
 20
938.717781
 10
-781.064871
 20
937.960675
 10
-781.078004
 20
937.587457
 10
-781.082566
 20
937.204988
  0
LINE
  5
76
100
AcDbEntity
  8
025-DWG
  6
CONTINUOUS
100
AcDbLine
 10
-780.390831
 20
937.204988
 30
0.0
 11
-781.082566
 21
937.204988
 31
0.0
  0
LWPOLYLINE
  5
77
100
AcDbEntity
  8
025-DWG
  6
CONTINUOUS
100
AcDbPolyline
 90
        9
 70
   128
 43
0.0
 10
-779.611102
 20
939.770451
 10
-779.799245
 20
939.792132
 10
-779.983198
 20
939.843771
 10
-780.156242
 20
939.923481
 10
-780.312054
 20
940.028351
 10
-780.444942
 20
940.154549
 10
-780.55005
 20
940.297465
 10
-780.62354
 20
940.451877
 10
-780.662725
 20
940.612144
  0
LWPOLYLINE
  5
78
100
AcDbEntity
  8
025-DWG
  6
CONTINUOUS
100
AcDbPolyline
 90
        4
 70
   128
 43
0.0
 10
-783.049521
 20
921.938182
 10
-782.524214
 20
922.240742
 10
-780.941436
 20
923.158545
 10
-779.541978
 20
923.977788
  0
LWPOLYLINE
  5
79
100
AcDbEntity
  8
025-DWG
  6
CONTINUOUS
100
AcDbPolyline
 90
        5
 70
   128
 43
0.0
 10
-781.082566
 20
925.855842
 10
-780.965728
 20
925.219786
 10
-780.644947
 20
924.658986
 10
-780.155722
 20
924.231408
 10
-779.541978
 20
923.977788
  0
LINE
  5
7A
100
AcDbEntity
  8
025-DWG
  6
CONTINUOUS
100
AcDbLine
 10
-780.390831
 20
925.855842
 30
0.0
 11
-781.082566
 21
925.855842
 31
0.0
  0
LWPOLYLINE
  5
7B
100
AcDbEntity
  8
025-DWG
  6
CONTINUOUS
100
AcDbPolyline
 90
        9
 70
   128
 43
0.0
 10
-779.587458
 20
924.934111
 10
-779.612886
 20
924.770532
 10
-779.629728
 20
924.611516
 10
-779.637514
 20
924.461497
 10
-779.636027
 20
924.324658
 10
-779.625307
 20
924.204817
 10
-779.605655
 20
924.105316
 10
-779.577618
 20
924.02893
 10
-779.541978
 20
923.977788
  0
LWPOLYLINE
  5
7C
100
AcDbEntity
  8
025-DWG
  6
CONTINUOUS
100
AcDbPolyline
 90
        5
 70
   128
 43
0.0
 10
-779.587458
 20
924.934111
 10
-779.925859
 20
925.060744
 10
-780.202395
 20
925.302762
 10
-780.353824
 20
925.598622
 10
-780.390831
 20
925.855842
  0
LINE
  5
7D
100
AcDbEntity
  8
025-DWG
  6
CONTINUOUS
100
AcDbLine
 10
-781.082566
 20
925.855842
 30
0.0
 11
-784.639914
 21
923.766347
 31
0.0
  0
LWPOLYLINE
  5
7E
100
AcDbEntity
  8
035-DWG
  6
CONTINUOUS
100
AcDbPolyline
 90
        5
 70
   128
 43
0.0
 10
-783.049521
 20
921.938182
 10
-783.733389
 20
922.200085
 10
-784.289544
 20
922.701573
 10
-784.578836
 20
923.300268
 10
-784.639914
 20
923.766347
  0
LINE
  5
7F
100
AcDbEntity
  8
035-DWG
  6
CONTINUOUS
100
AcDbLine
 10
-780.390831
 20
925.855842
 30
0.0
 11
-780.390831
 21
937.204988
 31
0.0
  0
LINE
  5
80
100
AcDbEntity
  8
025-DWG
  6
CONTINUOUS
100
AcDbLine
 10
-781.082566
 20
937.204988
 30
0.0
 11
-781.082566
 21
925.855842
 31
0.0
  0
LWPOLYLINE
  5
81
100
AcDbEntity
  8
035-DWG
  6
CONTINUOUS
100
AcDbPolyline
 90
        5
 70
   128
 43
0.0
 10
-784.639914
 20
961.326258
 10
-784.592359
 20
961.622945
 10
-784.458905
 20
961.894097
 10
-784.228857
 20
962.144091
 10
-784.135109
 20
962.198817
  0
LINE
  5
82
100
AcDbEntity
  8
035-DWG
100
AcDbLine
 10
-882.275734
 20
1002.669091
 30
0.0
 11
-844.447307
 21
1040.497518
 31
0.0
  0
ARC
  5
83
100
AcDbEntity
  8
035-DWG
100
AcDbCircle
 10
-841.61888
 20
1037.669091
 30
0.0
 40
4.0
100
AcDbArc
 50
90.0
 51
135.0
  0
LINE
  5
84
100
AcDbEntity
  8
025-DWG
100
AcDbLine
 10
-441.682397
 20
561.457484
 30
0.0
 11
-443.951656
 21
561.457484
 31
0.0
  0
ARC
  5
85
100
AcDbEntity
  8
035-DWG
100
AcDbCircle
 10
-446.176764
 20
574.457484
 30
0.0
 40
3.5
100
AcDbArc
 50
270.0
 51
90.0
  0
ARC
  5
86
100
AcDbEntity
  8
035-DWG
100
AcDbCircle
 10
-438.926764
 20
582.157935
 30
0.0
 40
12.0
100
AcDbArc
 50
113.589161
 51
180.0
  0
LINE
  5
87
100
AcDbEntity
  8
035-DWG
100
AcDbLine
 10
-440.676764
 20
513.157484
 30
0.0
 11
-456.676764
 21
513.157484
 31
0.0
  0
LINE
  5
88
100
AcDbEntity
  8
025-DWG
100
AcDbLine
 10
-440.676764
 20
511.157484
 30
0.0
 11
-456.676764
 21
511.157484
 31
0.0
  0
LINE
  5
89
100
AcDbEntity
  8
035-DWG
100
AcDbLine
 10
-440.676764
 20
516.157484
 30
0.0
 11
-456.676764
 21
516.157484
 31
0.0
  0
LINE
  5
8A
100
AcDbEntity
  8
035-DWG
100
AcDbLine
 10
-441.676764
 20
510.157484
 30
0.0
 11
-448.676764
 21
510.157484
 31
0.0
  0
LINE
  5
8B
100
AcDbEntity
  8
035-DWG
100
AcDbLine
 10
-458.676764
 20
532.157484
 30
0.0
 11
-438.676764
 21
532.157484
 31
0.0
  0
ARC
  5
8C
100
AcDbEntity
  8
035-DWG
100
AcDbCircle
 10
-436.799495
 20
569.655542
 30
0.0
 40
28.5
100
AcDbArc
 50
92.426491
 51
145.110334
  0
ARC
  5
8D
100
AcDbEntity
  8
035-DWG
100
AcDbCircle
 10
-446.176764
 20
579.957484
 30
0.0
 40
9.0
100
AcDbArc
 50
270.0
 51
25.0
  0
LINE
  5
8E
100
AcDbEntity
  8
035-DWG
100
AcDbLine
 10
-467.959264
 20
559.157484
 30
0.0
 11
-429.356764
 21
559.157484
 31
0.0
  0
LINE
  5
8F
100
AcDbEntity
  8
035-DWG
100
AcDbLine
 10
-467.976764
 20
559.457484
 30
0.0
 11
-429.376764
 21
559.457484
 31
0.0
  0
LINE
  5
90
100
AcDbEntity
  8
035-DWG
100
AcDbLine
 10
-466.92075
 20
570.957484
 30
0.0
 11
-430.432778
 21
570.957484
 31
0.0
  0
ARC
  5
91
100
AcDbEntity
  8
035-DWG
100
AcDbCircle
 10
-434.926764
 20
582.42911
 30
0.0
 40
16.0
100
AcDbArc
 50
96.057169
 51
180.971119
  0
LINE
  5
92
100
AcDbEntity
  8
035-DWG
100
AcDbLine
 10
-460.986742
 20
535.157484
 30
0.0
 11
-460.986742
 21
553.414852
 31
0.0
  0
LINE
  5
93
100
AcDbEntity
  8
035-DWG
100
AcDbLine
 10
-538.658547
 20
577.513668
 30
0.0
 11
-538.658547
 21
535.157484
 31
0.0
  0
LWPOLYLINE
  5
94
100
AcDbEntity
  8
035-DWG
100
AcDbPolyline
 90
       41
 70
     0
 43
0.0
 10
-534.094363
 20
533.2
 10
-534.094619
 20
533.203679
 10
-534.095389
 20
533.214782
 10
-534.096676
 20
533.233405
 10
-534.098482
 20
533.259644
 10
-534.100811
 20
533.293597
 10
-534.103666
 20
533.335361
 10
-534.107049
 20
533.385031
 10
-534.110963
 20
533.442705
 10
-534.115408
 20
533.50845
 10
-534.12037
 20
533.582223
 10
-534.125833
 20
533.663962
 10
-534.131782
 20
533.7536
 10
-534.1382
 20
533.851074
 10
-534.145071
 20
533.956319
 10
-534.152381
 20
534.069271
 10
-534.160112
 20
534.189865
 10
-534.168247
 20
534.318038
 10
-534.176758
 20
534.453636
 10
-534.185618
 20
534.59646
 10
-534.194797
 20
534.746306
 10
-534.204266
 20
534.902975
 10
-534.213998
 20
535.066264
 10
-534.223962
 20
535.235973
 10
-534.234131
 20
535.411901
 10
-534.244471
 20
535.593826
 10
-534.25495
 20
535.781437
 10
-534.265533
 20
535.974396
 10
-534.276188
 20
536.172366
 10
-534.286882
 20
536.37501
 10
-534.297583
 20
536.58199
 10
-534.308258
 20
536.79297
 10
-534.318873
 20
537.007612
 10
-534.328246
 20
537.201422
 10
-534.337668
 20
537.400568
 10
-534.347118
 20
537.604915
 10
-534.356573
 20
537.814329
 10
-534.366011
 20
538.028679
 10
-534.375408
 20
538.247829
 10
-534.384742
 20
538.471647
 10
-534.393991
 20
538.7
  0
LINE
  5
95
100
AcDbEntity
  8
035-DWG
100
AcDbLine
 10
-534.219354
 20
535.157484
 30
0.0
 11
-460.986742
 21
535.157484
 31
0.0
  0
LINE
  5
96
100
AcDbEntity
  8
035-DWG
100
AcDbLine
 10
-538.658547
 20
535.157484
 30
0.0
 11
-537.763705
 21
535.157484
 31
0.0
  0
LWPOLYLINE
  5
97
100
AcDbEntity
  8
025-DWG
100
AcDbPolyline
 90
        3
 70
     0
 43
0.0
 10
-534.094941
 20
532.347552
 10
-532.099814
 20
532.275682
 10
-530.094363
 20
532.203812
  0
LWPOLYLINE
  5
98
100
AcDbEntity
  8
035-DWG
100
AcDbPolyline
 90
        3
 70
     0
 43
0.0
 10
-530.094363
 20
533.129874
 10
-532.103249
 20
533.220671
 10
-534.102017
 20
533.311342
  0
LINE
  5
99
100
AcDbEntity
  8
035-DWG
100
AcDbLine
 10
-530.094363
 20
531.7
 30
0.0
 11
-534.094363
 21
531.560317
 31
0.0
  0
LINE
  5
9A
100
AcDbEntity
  8
035-DWG
100
AcDbLine
 10
-534.094941
 20
532.347552
 30
0.0
 11
-534.094941
 21
531.567728
 31
0.0
  0
LWPOLYLINE
  5
9B
100
AcDbEntity
  8
035-DWG
100
AcDbPolyline
 90
        3
 70
     0
 43
0.0
 10
-534.094942
 20
531.567727
 10
-534.094646
 20
531.563952
 10
-534.094363
 20
531.560317
  0
LINE
  5
9C
100
AcDbEntity
  8
035-DWG
100
AcDbLine
 10
-534.094363
 20
533.2
 30
0.0
 11
-534.094363
 21
532.347531
 31
0.0
  0
LINE
  5
9D
100
AcDbEntity
  8
035-DWG
100
AcDbLine
 10
-530.094363
 20
532.203812
 30
0.0
 11
-530.094363
 21
533.129874
 31
0.0
  0
LINE
  5
9E
100
AcDbEntity
  8
035-DWG
100
AcDbLine
 10
-530.094363
 20
531.703681
 30
0.0
 11
-530.094363
 21
532.203812
 31
0.0
  0
LINE
  5
9F
100
AcDbEntity
  8
035-DWG
100
AcDbLine
 10
-530.094363
 20
531.703681
 30
0.0
 11
-530.094363
 21
531.7
 31
0.0
  0
ARC
  5
A0
100
AcDbEntity
  8
035-DWG
100
AcDbCircle
 10
-458.676764
 20
514.657484
 30
0.0
 40
2.5
100
AcDbArc
 50
323.130102
 51
36.869898
  0
ARC
  5
A1
100
AcDbEntity
  8
035-DWG
100
AcDbCircle
 10
-455.676764
 20
511.157484
 30
0.0
 40
1.0
100
AcDbArc
 50
180.0
 51
270.0
  0
LINE
  5
A2
100
AcDbEntity
  8
035-DWG
100
AcDbLine
 10
-456.676764
 20
511.157484
 30
0.0
 11
-456.676764
 21
513.157484
 31
0.0
  0
ARC
  5
A3
100
AcDbEntity
  8
035-DWG
100
AcDbCircle
 10
-458.676764
 20
530.157484
 30
0.0
 40
2.0
100
AcDbArc
 50
0.0
 51
90.0
  0
LINE
  5
A4
100
AcDbEntity
  8
035-DWG
100
AcDbLine
 10
-456.676764
 20
516.157484
 30
0.0
 11
-456.676764
 21
530.157484
 31
0.0
  0
LINE
  5
A5
100
AcDbEntity
  8
035-DWG
100
AcDbLine
 10
-461.739264
 20
532.157484
 30
0.0
 11
-462.946323
 21
535.157484
 31
0.0
  0
LINE
  5
A6
100
AcDbEntity
  8
035-DWG
100
AcDbLine
 10
-466.740618
 20
532.157484
 30
0.0
 11
-458.676764
 21
532.157484
 31
0.0
  0
ARC
  5
A7
100
AcDbEntity
  8
035-DWG
100
AcDbCircle
 10
-466.740618
 20
533.157484
 30
0.0
 40
1.0
100
AcDbArc
 50
190.0
 51
270.0
  0
LINE
  5
A8
100
AcDbEntity
  8
035-DWG
100
AcDbLine
 10
-467.725426
 20
532.983836
 30
0.0
 11
-468.108698
 21
535.157484
 31
0.0
  0
LINE
  5
A9
100
AcDbEntity
  8
035-DWG
100
AcDbLine
 10
-461.739264
 20
535.157484
 30
0.0
 11
-461.739264
 21
532.157484
 31
0.0
  0
LINE
  5
AA
100
AcDbEntity
  8
035-DWG
100
AcDbLine
 10
-448.676764
 20
510.157484
 30
0.0
 11
-455.676764
 21
510.157484
 31
0.0
  0
LINE
  5
AB
100
AcDbEntity
  8
025-DWG
100
AcDbLine
 10
-447.765204
 20
530.157484
 30
0.0
 11
-456.676764
 21
530.157484
 31
0.0
  0
LINE
  5
AC
100
AcDbEntity
  8
035-DWG
100
AcDbLine
 10
-538.658547
 20
542.657484
 30
0.0
 11
-460.986742
 21
542.657484
 31
0.0
  0
LINE
  5
AD
100
AcDbEntity
  8
035-DWG
100
AcDbLine
 10
-538.658547
 20
568.157246
 30
0.0
 11
-460.986742
 21
553.414852
 31
0.0
  0
ARC
  5
AE
100
AcDbEntity
  8
035-DWG
100
AcDbCircle
 10
-536.830499
 20
589.131182
 30
0.0
 40
22.773337
100
AcDbArc
 50
292.802506
 51
312.864037
  0
LINE
  5
AF
100
AcDbEntity
  8
035-DWG
100
AcDbLine
 10
-528.004558
 20
568.137668
 30
0.0
 11
-538.658547
 21
570.099276
 31
0.0
  0
LINE
  5
B0
100
AcDbEntity
  8
035-DWG
100
AcDbLine
 10
-534.393991
 20
538.7
 30
0.0
 11
-535.073523
 21
538.7
 31
0.0
  0
LINE
  5
B1
100
AcDbEntity
  8
035-DWG
100
AcDbLine
 10
-535.073523
 20
538.7
 30
0.0
 11
-535.509989
 21
538.7
 31
0.0
  0
LINE
  5
B2
100
AcDbEntity
  8
035-DWG
100
AcDbLine
 10
-537.763705
 20
538.7
 30
0.0
 11
-535.509989
 21
538.7
 31
0.0
  0
LINE
  5
B3
100
AcDbEntity
  8
035-DWG
100
AcDbLine
 10
-460.176764
 20
573.957484
 30
0.0
 11
-460.176764
 21
585.957484
 31
0.0
  0
LINE
  5
B4
100
AcDbEntity
  8
035-DWG
100
AcDbLine
 10
-460.176764
 20
582.957484
 30
0.0
 11
-460.176764
 21
585.957484
 31
0.0
  0
LINE
  5
B5
100
AcDbEntity
  8
035-DWG
100
AcDbLine
 10
-518.29803
 20
572.083484
 30
0.0
 11
-467.967578
 21
558.660267
 31
0.0
  0
ARC
  5
B6
100
AcDbEntity
  8
035-DWG
100
AcDbCircle
 10
-518.251472
 20
581.145347
 30
0.0
 40
9.23749
100
AcDbArc
 50
250.475796
 51
272.958583
  0
LINE
  5
B7
100
AcDbEntity
  8
035-DWG
100
AcDbLine
 10
-465.976764
 20
559.157484
 30
0.0
 11
-465.976764
 21
559.457484
 31
0.0
  0
LINE
  5
B8
100
AcDbEntity
  8
035-DWG
100
AcDbLine
 10
-467.959264
 20
559.157484
 30
0.0
 11
-467.959859
 21
558.65257
 31
0.0
  0
POLYLINE
  5
B9
100
AcDbEntity
  8
035-DWG
100
AcDb2dPolyline
 66
     1
 10
0.0
 20
0.0
 30
0.0
 70
     2
  0
VERTEX
  5
BA
100
AcDbEntity
  8
035-DWG
100
AcDbVertex
100
AcDb2dVertex
 10
-467.967578
 20
558.660267
 30
0.0
 42
0.015758
  0
VERTEX
  5
BB
100
AcDbEntity
  8
035-DWG
100
AcDbVertex
100
AcDb2dVertex
 10
-466.525441
 20
557.30978
 30
0.0
 42
0.015758
 70
     1
  0
VERTEX
  5
BC
100
AcDbEntity
  8
035-DWG
100
AcDbVertex
100
AcDb2dVertex
 10
-465.001107
 20
556.052809
 30
0.0
 42
0.019172
  0
VERTEX
  5
BD
100
AcDbEntity
  8
035-DWG
100
AcDbVertex
100
AcDb2dVertex
 10
-463.044519
 20
554.656837
 30
0.0
 42
0.019172
 70
     1
  0
VERTEX
  5
BE
100
AcDbEntity
  8
035-DWG
100
AcDbVertex
100
AcDb2dVertex
 10
-460.986742
 20
553.414852
 30
0.0
  0
SEQEND
  5
BF
100
AcDbEntity
  8
035-DWG
  0
LINE
  5
C0
100
AcDbEntity
  8
025-DWG
100
AcDbLine
 10
-455.67113
 20
570.957484
 30
0.0
 11
-455.67113
 21
561.457484
 31
0.0
  0
LINE
  5
C1
100
AcDbEntity
  8
025-DWG
100
AcDbLine
 10
-457.830084
 20
570.657484
 30
0.0
 11
-457.830084
 21
561.457484
 31
0.0
  0
LINE
  5
C2
100
AcDbEntity
  8
025-DWG
100
AcDbLine
 10
-457.15592
 20
570.957484
 30
0.0
 11
-457.830084
 21
561.457484
 31
0.0
  0
LINE
  5
C3
100
AcDbEntity
  8
025-DWG
100
AcDbLine
 10
-451.058095
 20
570.957484
 30
0.0
 11
-451.058095
 21
561.457484
 31
0.0
  0
LINE
  5
C4
100
AcDbEntity
  8
025-DWG
100
AcDbLine
 10
-453.401872
 20
570.757484
 30
0.0
 11
-453.401872
 21
561.457484
 31
0.0
  0
LINE
  5
C5
100
AcDbEntity
  8
025-DWG
100
AcDbLine
 10
-453.401872
 20
561.457484
 30
0.0
 11
-452.975803
 21
570.957484
 31
0.0
  0
LINE
  5
C6
100
AcDbEntity
  8
025-DWG
100
AcDbLine
 10
-453.401872
 20
561.457484
 30
0.0
 11
-451.058095
 21
561.457484
 31
0.0
  0
LINE
  5
C7
100
AcDbEntity
  8
025-DWG
100
AcDbLine
 10
-457.830084
 20
561.457484
 30
0.0
 11
-455.67113
 21
561.457484
 31
0.0
  0
ARC
  5
C8
100
AcDbEntity
  8
035-DWG
100
AcDbCircle
 10
-453.201872
 20
570.757484
 30
0.0
 40
0.2
100
AcDbArc
 50
90.0
 51
180.0
  0
ARC
  5
C9
100
AcDbEntity
  8
035-DWG
100
AcDbCircle
 10
-457.530084
 20
570.657484
 30
0.0
 40
0.3
100
AcDbArc
 50
90.0
 51
180.0
  0
LINE
  5
CA
100
AcDbEntity
  8
035-DWG
100
AcDbLine
 10
-467.976764
 20
561.457484
 30
0.0
 11
-467.670293
 21
570.233659
 31
0.0
  0
LINE
  5
CB
100
AcDbEntity
  8
025-DWG
100
AcDbLine
 10
-467.2642
 20
570.874224
 30
0.0
 11
-467.2642
 21
561.523422
 31
0.0
  0
LINE
  5
CC
100
AcDbEntity
  8
025-DWG
100
AcDbLine
 10
-466.746838
 20
570.357484
 30
0.0
 11
-466.746838
 21
561.457484
 31
0.0
  0
LINE
  5
CD
100
AcDbEntity
  8
025-DWG
100
AcDbLine
 10
-465.868478
 20
570.957484
 30
0.0
 11
-465.868478
 21
561.457484
 31
0.0
  0
LINE
  5
CE
100
AcDbEntity
  8
025-DWG
100
AcDbLine
 10
-459.844684
 20
570.957484
 30
0.0
 11
-459.844684
 21
561.457484
 31
0.0
  0
LINE
  5
CF
100
AcDbEntity
  8
025-DWG
100
AcDbLine
 10
-461.683159
 20
570.657484
 30
0.0
 11
-461.683159
 21
561.457484
 31
0.0
  0
LINE
  5
D0
100
AcDbEntity
  8
025-DWG
100
AcDbLine
 10
-461.683159
 20
561.457484
 30
0.0
 11
-460.956026
 21
570.957484
 31
0.0
  0
LINE
  5
D1
100
AcDbEntity
  8
025-DWG
100
AcDbLine
 10
-463.316516
 20
570.957484
 30
0.0
 11
-463.316516
 21
561.457484
 31
0.0
  0
LINE
  5
D2
100
AcDbEntity
  8
025-DWG
100
AcDbLine
 10
-464.718995
 20
570.457484
 30
0.0
 11
-464.718995
 21
561.457484
 31
0.0
  0
LINE
  5
D3
100
AcDbEntity
  8
025-DWG
100
AcDbLine
 10
-463.920108
 20
570.957484
 30
0.0
 11
-464.718995
 21
561.457484
 31
0.0
  0
LINE
  5
D4
100
AcDbEntity
  8
025-DWG
100
AcDbLine
 10
-467.2642
 20
561.523422
 30
0.0
 11
-467.974461
 21
561.523422
 31
0.0
  0
LINE
  5
D5
100
AcDbEntity
  8
025-DWG
100
AcDbLine
 10
-463.316516
 20
561.457484
 30
0.0
 11
-464.718995
 21
561.457484
 31
0.0
  0
LINE
  5
D6
100
AcDbEntity
  8
025-DWG
100
AcDbLine
 10
-461.683159
 20
561.457484
 30
0.0
 11
-459.844684
 21
561.457484
 31
0.0
  0
LINE
  5
D7
100
AcDbEntity
  8
025-DWG
100
AcDbLine
 10
-465.868478
 20
561.457484
 30
0.0
 11
-466.746838
 21
561.457484
 31
0.0
  0
LINE
  5
D8
100
AcDbEntity
  8
035-DWG
100
AcDbLine
 10
-467.976764
 20
561.457484
 30
0.0
 11
-467.976764
 21
559.457484
 31
0.0
  0
ARC
  5
D9
100
AcDbEntity
  8
035-DWG
100
AcDbCircle
 10
-466.92075
 20
570.207484
 30
0.0
 40
0.75
100
AcDbArc
 50
90.0
 51
178.0
  0
ARC
  5
DA
100
AcDbEntity
  8
035-DWG
100
AcDbCircle
 10
-461.383159
 20
570.657484
 30
0.0
 40
0.3
100
AcDbArc
 50
90.0
 51
180.0
  0
ARC
  5
DB
100
AcDbEntity
  8
035-DWG
100
AcDbCircle
 10
-466.146838
 20
570.357484
 30
0.0
 40
0.6
100
AcDbArc
 50
90.0
 51
180.0
  0
ARC
  5
DC
100
AcDbEntity
  8
035-DWG
100
AcDbCircle
 10
-464.218995
 20
570.457484
 30
0.0
 40
0.5
100
AcDbArc
 50
90.0
 51
180.0
  0
LINE
  5
DD
100
AcDbEntity
  8
035-DWG
100
AcDbLine
 10
-450.926764
 20
579.957484
 30
0.0
 11
-450.926764
 21
582.157935
 31
0.0
  0
ARC
  5
DE
100
AcDbEntity
  8
035-DWG
100
AcDbCircle
 10
-457.176764
 20
573.957484
 30
0.0
 40
3.0
100
AcDbArc
 50
180.0
 51
270.0
  0
LINE
  5
DF
100
AcDbEntity
  8
035-DWG
100
AcDbLine
 10
-467.976764
 20
559.6
 30
0.0
 11
-471.491115
 21
559.6
 31
0.0
  0
LINE
  5
E0
100
AcDbEntity
  8
025-DWG
100
AcDbLine
 10
-446.295433
 20
570.957484
 30
0.0
 11
-446.295433
 21
561.457484
 31
0.0
  0
LINE
  5
E1
100
AcDbEntity
  8
025-DWG
100
AcDbLine
 10
-448.676764
 20
570.957484
 30
0.0
 11
-448.676764
 21
561.457484
 31
0.0
  0
LINE
  5
E2
100
AcDbEntity
  8
025-DWG
100
AcDbLine
 10
-443.951656
 20
570.957484
 30
0.0
 11
-443.951656
 21
561.457484
 31
0.0
  0
LINE
  5
E3
100
AcDbEntity
  8
025-DWG
100
AcDbLine
 10
-444.151178
 20
570.761772
 30
0.0
 11
-443.951656
 21
561.457484
 31
0.0
  0
LINE
  5
E4
100
AcDbEntity
  8
025-DWG
100
AcDbLine
 10
-446.295433
 20
561.457484
 30
0.0
 11
-446.55371
 21
570.957484
 31
0.0
  0
LINE
  5
E5
100
AcDbEntity
  8
025-DWG
100
AcDbLine
 10
-446.295433
 20
561.457484
 30
0.0
 11
-448.676764
 21
561.457484
 31
0.0
  0
ARC
  5
E6
100
AcDbEntity
  8
035-DWG
100
AcDbCircle
 10
-444.351132
 20
570.757484
 30
0.0
 40
0.2
100
AcDbArc
 50
1.228466
 51
90.0
  0
LINE
  5
E7
100
AcDbEntity
  8
035-DWG
100
AcDbLine
 10
-446.176764
 20
577.957484
 30
0.0
 11
-448.926764
 21
577.957484
 31
0.0
  0
LINE
  5
E8
100
AcDbEntity
  8
035-DWG
100
AcDbLine
 10
-457.176764
 20
570.957484
 30
0.0
 11
-446.176764
 21
570.957484
 31
0.0
  0
ARC
  5
E9
100
AcDbEntity
  8
035-DWG
100
AcDbCircle
 10
-448.926764
 20
579.957484
 30
0.0
 40
2.0
100
AcDbArc
 50
180.0
 51
270.0
  0
ARC
  5
EA
100
AcDbEntity
  8
025-DWG
100
AcDbCircle
 10
-438.926764
 20
582.157935
 30
0.0
 40
12.3
100
AcDbArc
 50
113.589161
 51
120.757182
  0
ARC
  5
EB
100
AcDbEntity
  8
025-DWG
100
AcDbCircle
 10
-438.926764
 20
582.157935
 30
0.0
 40
12.3
100
AcDbArc
 50
135.449275
 51
157.867924
  0
LINE
  5
EC
100
AcDbEntity
  8
025-DWG
  6
CONTINUOUS
100
AcDbLine
 10
-664.22601
 20
715.043445
 30
0.0
 11
-671.243139
 21
736.624847
 31
0.0
  0
LWPOLYLINE
  5
ED
100
AcDbEntity
  8
025-DWG
  6
CONTINUOUS
100
AcDbPolyline
 90
        4
 70
   128
 43
0.0
 10
-672.290871
 20
735.782919
 10
-671.940742
 20
734.706146
 10
-670.540251
 20
730.398299
 10
-665.277667
 20
714.201754
  0
LINE
  5
EE
100
AcDbEntity
  8
035-DWG
  6
CONTINUOUS
100
AcDbLine
 10
-660.248812
 20
698.197255
 30
0.0
 11
-660.248812
 21
735.757167
 31
0.0
  0
LWPOLYLINE
  5
EF
100
AcDbEntity
  8
025-DWG
  6
CONTINUOUS
100
AcDbPolyline
 90
        4
 70
   128
 43
0.0
 10
-766.146623
 20
735.822891
 10
-766.102445
 20
734.752751
 10
-765.925733
 20
730.47217
 10
-765.412895
 20
718.048937
  0
LWPOLYLINE
  5
F0
100
AcDbEntity
  8
025-DWG
  6
CONTINUOUS
100
AcDbPolyline
 90
        3
 70
   128
 43
0.0
 10
-764.475733
 20
718.891261
 10
-764.843024
 20
727.778282
 10
-765.210318
 20
736.665169
  0
LINE
  5
F1
100
AcDbEntity
  8
025-DWG
  6
CONTINUOUS
100
AcDbLine
 10
-764.475733
 20
732.888047
 30
0.0
 11
-764.475733
 21
718.891261
 31
0.0
  0
LINE
  5
F2
100
AcDbEntity
  8
035-DWG
  6
CONTINUOUS
100
AcDbLine
 10
-763.274262
 20
715.827358
 30
0.0
 11
-763.274262
 21
730.179813
 31
0.0
  0
LWPOLYLINE
  5
F3
100
AcDbEntity
  8
025-DWG
  6
CONTINUOUS
100
AcDbPolyline
 90
        4
 70
   128
 43
0.0
 10
-679.475824
 20
718.04959
 10
-679.431648
 20
719.119761
 10
-679.254943
 20
723.400425
 10
-678.74213
 20
735.822792
  0
LWPOLYLINE
  5
F4
100
AcDbEntity
  8
025-DWG
  6
CONTINUOUS
100
AcDbPolyline
 90
        3
 70
   128
 43
0.0
 10
-679.678439
 20
736.665071
 10
-680.045717
 20
727.778559
 10
-680.412993
 20
718.891914
  0
LINE
  5
F5
100
AcDbEntity
  8
025-DWG
  6
CONTINUOUS
100
AcDbLine
 10
-680.412993
 20
718.891914
 30
0.0
 11
-680.412993
 21
732.888047
 31
0.0
  0
LINE
  5
F6
100
AcDbEntity
  8
035-DWG
  6
CONTINUOUS
100
AcDbLine
 10
-681.614464
 20
730.179813
 30
0.0
 11
-681.614464
 21
715.827992
 31
0.0
  0
LWPOLYLINE
  5
F7
100
AcDbEntity
  8
025-DWG
  6
CONTINUOUS
100
AcDbPolyline
 90
        3
 70
   128
 43
0.0
 10
-702.795629
 20
693.104905
 10
-700.81523
 20
693.234314
 10
-692.358842
 20
693.975548
  0
LWPOLYLINE
  5
F8
100
AcDbEntity
  8
025-DWG
  6
CONTINUOUS
100
AcDbPolyline
 90
        3
 70
   128
 43
0.0
 10
-692.35927
 20
694.952512
 10
-697.550609
 20
694.46185
 10
-702.75273
 20
694.086371
  0
LWPOLYLINE
  5
F9
100
AcDbEntity
  8
025-DWG
  6
CONTINUOUS
100
AcDbPolyline
 90
       20
 70
   128
 43
0.0
 10
-689.019972
 20
703.903326
 10
-689.139727
 20
705.330159
 10
-689.491322
 20
706.717059
 10
-690.069077
 20
708.02436
 10
-690.854873
 20
709.215258
 10
-691.827591
 20
710.250132
 10
-692.960038
 20
711.103568
 10
-694.203872
 20
711.738684
 10
-695.537198
 20
712.152157
 10
-696.902068
 20
712.326616
 10
-698.277781
 20
712.267658
 10
-699.614783
 20
711.976781
 10
-700.886315
 20
711.466607
 10
-702.060146
 20
710.746439
 10
-703.100809
 20
709.841886
 10
-703.988607
 20
708.762163
 10
-704.688117
 20
707.550593
 10
-705.184151
 20
706.219298
 10
-705.45467
 20
704.824065
 10
-705.504666
 20
703.903326
  0
LWPOLYLINE
  5
FA
100
AcDbEntity
  8
025-DWG
  6
CONTINUOUS
100
AcDbPolyline
 90
       20
 70
   128
 43
0.0
 10
-704.798711
 20
703.898865
 10
-704.718931
 20
705.017102
 10
-704.482572
 20
706.112813
 10
-704.003737
 20
707.350809
 10
-703.324133
 20
708.490054
 10
-702.468868
 20
709.485248
 10
-701.458107
 20
710.319724
 10
-700.3424
 20
710.953279
 10
-699.136689
 20
711.386586
 10
-697.902741
 20
711.599815
 10
-696.651894
 20
711.600569
 10
-695.435277
 20
711.389547
 10
-694.271286
 20
710.977781
 10
-693.189419
 20
710.373066
 10
-692.220963
 20
709.59732
 10
-691.37978
 20
708.654458
 10
-690.702185
 20
707.585193
 10
-690.198186
 20
706.391746
 10
-689.894043
 20
705.130612
 10
-689.798692
 20
703.898865
  0
LWPOLYLINE
  5
FB
100
AcDbEntity
  8
025-DWG
  6
CONTINUOUS
100
AcDbPolyline
 90
       17
 70
   128
 43
0.0
 10
-691.730683
 20
703.898865
 10
-691.841812
 20
705.036033
 10
-692.170928
 20
706.129501
 10
-692.705383
 20
707.137246
 10
-693.424639
 20
708.020543
 10
-694.301055
 20
708.745445
 10
-695.30095
 20
709.284096
 10
-696.3859
 20
709.615796
 10
-697.51421
 20
709.727797
 10
-698.64252
 20
709.615796
 10
-699.727469
 20
709.284096
 10
-700.727365
 20
708.745445
 10
-701.60378
 20
708.020543
 10
-702.323036
 20
707.137246
 10
-702.857491
 20
706.129501
 10
-703.186607
 20
705.036033
 10
-703.297736
 20
703.898865
  0
LWPOLYLINE
  5
FC
100
AcDbEntity
  8
025-DWG
  6
CONTINUOUS
100
AcDbPolyline
 90
       16
 70
   128
 43
0.0
 10
-702.632623
 20
703.894643
 10
-702.522326
 20
704.960173
 10
-702.194517
 20
705.97927
 10
-701.66354
 20
706.907349
 10
-700.952623
 20
707.703804
 10
-700.09287
 20
708.333792
 10
-699.121896
 20
708.76975
 10
-698.082181
 20
708.992603
 10
-697.019213
 20
708.992603
 10
-695.979498
 20
708.76975
 10
-695.008523
 20
708.333792
 10
-694.148771
 20
707.703804
 10
-693.437854
 20
706.907349
 10
-692.906876
 20
705.97927
 10
-692.579068
 20
704.960173
 10
-692.468771
 20
703.894643
  0
LWPOLYLINE
  5
FD
100
AcDbEntity
  8
025-DWG
  6
CONTINUOUS
100
AcDbPolyline
 90
        6
 70
   128
 43
0.0
 10
-705.61824
 20
694.342233
 10
-713.624305
 20
693.999541
 10
-722.11242
 20
693.869991
 10
-728.717157
 20
693.935467
 10
-735.312191
 20
694.146012
 10
-739.270486
 20
694.342233
  0
LWPOLYLINE
  5
FE
100
AcDbEntity
  8
025-DWG
  6
CONTINUOUS
100
AcDbPolyline
 90
        6
 70
   128
 43
0.0
 10
-739.257274
 20
693.359875
 10
-731.582376
 20
693.0252
 10
-722.730988
 20
692.885137
 10
-718.173045
 20
692.915636
 10
-713.618253
 20
693.015791
 10
-705.631452
 20
693.359875
  0
LWPOLYLINE
  5
FF
100
AcDbEntity
  8
025-DWG
  6
CONTINUOUS
100
AcDbPolyline
 90
        3
 70
   128
 43
0.0
 10
-752.529884
 20
693.975548
 10
-750.55533
 20
693.775021
 10
-742.093097
 20
693.104905
  0
LWPOLYLINE
  5
100
100
AcDbEntity
  8
025-DWG
  6
CONTINUOUS
100
AcDbPolyline
 90
        3
 70
   128
 43
0.0
 10
-742.135996
 20
694.086371
 10
-747.338117
 20
694.46185
 10
-752.529457
 20
694.952512
  0
LWPOLYLINE
  5
101
100
AcDbEntity
  8
025-DWG
  6
CONTINUOUS
100
AcDbPolyline
 90
       20
 70
   128
 43
0.0
 10
-739.38406
 20
703.903326
 10
-739.505056
 20
705.330159
 10
-739.860158
 20
706.717059
 10
-740.443349
 20
708.02436
 10
-741.235852
 20
709.215258
 10
-742.215786
 20
710.250132
 10
-743.355139
 20
711.103568
 10
-744.604673
 20
711.738684
 10
-745.941977
 20
712.152157
 10
-747.308575
 20
712.326616
 10
-748.683705
 20
712.267658
 10
-750.017846
 20
711.976781
 10
-751.284618
 20
711.466607
 10
-752.452251
 20
710.746439
 10
-753.486003
 20
709.841886
 10
-754.366839
 20
708.762163
 10
-755.060175
 20
707.550593
 10
-755.551472
 20
706.219298
 10
-755.819269
 20
704.824065
 10
-755.868754
 20
703.903326
  0
LWPOLYLINE
  5
102
100
AcDbEntity
  8
025-DWG
  6
CONTINUOUS
100
AcDbPolyline
 90
       20
 70
   128
 43
0.0
 10
-755.090034
 20
703.898865
 10
-755.011153
 20
705.017102
 10
-754.777381
 20
706.112813
 10
-754.303542
 20
707.350809
 10
-753.630428
 20
708.490054
 10
-752.782343
 20
709.485248
 10
-751.778666
 20
710.319724
 10
-750.668987
 20
710.953279
 10
-749.467726
 20
711.386586
 10
-748.236054
 20
711.599815
 10
-746.985222
 20
711.600569
 10
-745.766339
 20
711.389547
 10
-744.598121
 20
710.977781
 10
-743.510464
 20
710.373066
 10
-742.535329
 20
709.59732
 10
-741.687171
 20
708.654458
 10
-741.003165
 20
707.585193
 10
-740.493942
 20
706.391746
 10
-740.186446
 20
705.130612
 10
-740.090016
 20
703.898865
  0
LWPOLYLINE
  5
103
100
AcDbEntity
  8
025-DWG
  6
CONTINUOUS
100
AcDbPolyline
 90
       17
 70
   128
 43
0.0
 10
-741.59099
 20
703.898865
 10
-741.702119
 20
705.036033
 10
-742.031235
 20
706.129501
 10
-742.56569
 20
707.137246
 10
-743.284946
 20
708.020543
 10
-744.161361
 20
708.745445
 10
-745.161257
 20
709.284096
 10
-746.246206
 20
709.615796
 10
-747.374516
 20
709.727797
 10
-748.502826
 20
709.615796
 10
-749.587776
 20
709.284096
 10
-750.587672
 20
708.745445
 10
-751.464087
 20
708.020543
 10
-752.183343
 20
707.137246
 10
-752.717798
 20
706.129501
 10
-753.046914
 20
705.036033
 10
-753.158043
 20
703.898865
  0
LINE
  5
104
100
AcDbEntity
  8
025-DWG
  6
CONTINUOUS
100
AcDbLine
 10
-752.529457
 20
694.952512
 30
0.0
 11
-752.419955
 21
703.894643
 31
0.0
  0
LWPOLYLINE
  5
105
100
AcDbEntity
  8
025-DWG
  6
CONTINUOUS
100
AcDbPolyline
 90
        5
 70
   128
 43
0.0
 10
-753.158043
 20
703.898865
 10
-752.862065
 20
703.897195
 10
-752.530288
 20
703.895283
 10
-752.474836
 20
703.894961
 10
-752.419955
 20
703.894643
  0
LWPOLYLINE
  5
106
100
AcDbEntity
  8
025-DWG
  6
CONTINUOUS
100
AcDbPolyline
 90
       16
 70
   128
 43
0.0
 10
-752.419955
 20
703.894643
 10
-752.309659
 20
704.960173
 10
-751.98185
 20
705.97927
 10
-751.450872
 20
706.907349
 10
-750.739955
 20
707.703804
 10
-749.880203
 20
708.333792
 10
-748.909228
 20
708.76975
 10
-747.869513
 20
708.992603
 10
-746.806546
 20
708.992603
 10
-745.76683
 20
708.76975
 10
-744.795856
 20
708.333792
 10
-743.936103
 20
707.703804
 10
-743.225186
 20
706.907349
 10
-742.694209
 20
705.97927
 10
-742.3664
 20
704.960173
 10
-742.256103
 20
703.894643
  0
LWPOLYLINE
  5
107
100
AcDbEntity
  8
025-DWG
  6
CONTINUOUS
100
AcDbPolyline
 90
        9
 70
   128
 43
0.0
 10
-742.135996
 20
694.086371
 10
-742.144479
 20
693.914106
 10
-742.148969
 20
693.747011
 10
-742.149331
 20
693.590099
 10
-742.145555
 20
693.44808
 10
-742.137753
 20
693.325216
 10
-742.12616
 20
693.225194
 10
-742.111125
 20
693.151015
 10
-742.093097
 20
693.104905
  0
LWPOLYLINE
  5
108
100
AcDbEntity
  8
025-DWG
  6
CONTINUOUS
100
AcDbPolyline
 90
        9
 70
   128
 43
0.0
 10
-739.257274
 20
693.359875
 10
-739.268646
 20
693.405553
 10
-739.277566
 20
693.479485
 10
-739.283762
 20
693.579441
 10
-739.28705
 20
693.702407
 10
-739.28733
 20
693.844672
 10
-739.284592
 20
694.001946
 10
-739.278921
 20
694.169484
 10
-739.270486
 20
694.342233
  0
LWPOLYLINE
  5
109
100
AcDbEntity
  8
025-DWG
  6
CONTINUOUS
100
AcDbPolyline
 90
        9
 70
   128
 43
0.0
 10
-739.976974
 20
694.333506
 10
-739.953531
 20
694.160363
 10
-739.906692
 20
693.992774
 10
-739.837885
 20
693.835856
 10
-739.749213
 20
693.6944
 10
-739.643382
 20
693.572727
 10
-739.523626
 20
693.474551
 10
-739.393599
 20
693.402871
 10
-739.257274
 20
693.359875
  0
LWPOLYLINE
  5
10A
100
AcDbEntity
  8
025-DWG
  6
CONTINUOUS
100
AcDbPolyline
 90
        9
 70
   128
 43
0.0
 10
-741.47103
 20
694.104502
 10
-741.448116
 20
693.931901
 10
-741.401953
 20
693.764797
 10
-741.333941
 20
693.608259
 10
-741.246142
 20
693.467032
 10
-741.141219
 20
693.345399
 10
-741.022351
 20
693.247048
 10
-740.893145
 20
693.174961
 10
-740.757518
 20
693.131324
  0
LWPOLYLINE
  5
10B
100
AcDbEntity
  8
025-DWG
  6
CONTINUOUS
100
AcDbPolyline
 90
        3
 70
   128
 43
0.0
 10
-740.757518
 20
693.131324
 10
-739.533946
 20
693.317016
 10
-739.257274
 20
693.359875
  0
LWPOLYLINE
  5
10C
100
AcDbEntity
  8
025-DWG
  6
CONTINUOUS
100
AcDbPolyline
 90
        7
 70
   128
 43
0.0
 10
-740.757518
 20
693.131324
 10
-740.97868
 20
693.106113
 10
-741.244515
 20
693.090604
 10
-741.532796
 20
693.086225
 10
-741.851754
 20
693.092934
 10
-741.97154
 20
693.098173
 10
-742.093097
 20
693.104905
  0
LINE
  5
10D
100
AcDbEntity
  8
025-DWG
  6
CONTINUOUS
100
AcDbLine
 10
-739.270486
 20
694.342233
 30
0.0
 11
-739.38406
 21
703.903326
 31
0.0
  0
LINE
  5
10E
100
AcDbEntity
  8
025-DWG
  6
CONTINUOUS
100
AcDbLine
 10
-740.090037
 20
703.898865
 30
0.0
 11
-739.976974
 21
694.333506
 31
0.0
  0
LINE
  5
10F
100
AcDbEntity
  8
025-DWG
  6
CONTINUOUS
100
AcDbLine
 10
-741.47103
 20
694.104502
 30
0.0
 11
-741.590967
 21
703.898865
 31
0.0
  0
LINE
  5
110
100
AcDbEntity
  8
025-DWG
  6
CONTINUOUS
100
AcDbLine
 10
-742.256103
 20
703.894643
 30
0.0
 11
-742.135996
 21
694.086371
 31
0.0
  0
LWPOLYLINE
  5
111
100
AcDbEntity
  8
025-DWG
  6
CONTINUOUS
100
AcDbPolyline
 90
        9
 70
   128
 43
0.0
 10
-739.976974
 20
694.333506
 10
-739.909451
 20
694.334382
 10
-739.834218
 20
694.33534
 10
-739.752076
 20
694.336373
 10
-739.663903
 20
694.337468
 10
-739.570641
 20
694.338614
 10
-739.473286
 20
694.339799
 10
-739.372876
 20
694.341009
 10
-739.270486
 20
694.342233
  0
LINE
  5
112
100
AcDbEntity
  8
025-DWG
  6
CONTINUOUS
100
AcDbLine
 10
-739.976974
 20
694.333506
 30
0.0
 11
-741.47103
 21
694.104502
 31
0.0
  0
LWPOLYLINE
  5
113
100
AcDbEntity
  8
025-DWG
  6
CONTINUOUS
100
AcDbPolyline
 90
        6
 70
   128
 43
0.0
 10
-742.135996
 20
694.086371
 10
-741.985075
 20
694.070474
 10
-741.836014
 20
694.064057
 10
-741.701311
 20
694.067688
 10
-741.577138
 20
694.081371
 10
-741.47103
 20
694.104502
  0
LWPOLYLINE
  5
114
100
AcDbEntity
  8
025-DWG
  6
CONTINUOUS
100
AcDbPolyline
 90
        5
 70
   128
 43
0.0
 10
-740.090016
 20
703.898865
 10
-739.842423
 20
703.900455
 10
-739.533714
 20
703.902394
 10
-739.443082
 20
703.902959
 10
-739.38406
 20
703.903326
  0
LINE
  5
115
100
AcDbEntity
  8
025-DWG
  6
CONTINUOUS
100
AcDbLine
 10
-740.090016
 20
703.898865
 30
0.0
 11
-740.090037
 21
703.898865
 31
0.0
  0
LINE
  5
116
100
AcDbEntity
  8
025-DWG
  6
CONTINUOUS
100
AcDbLine
 10
-741.590967
 20
703.898865
 30
0.0
 11
-741.59099
 21
703.898865
 31
0.0
  0
LINE
  5
117
100
AcDbEntity
  8
025-DWG
  6
CONTINUOUS
100
AcDbLine
 10
-740.090037
 20
703.898865
 30
0.0
 11
-741.590967
 21
703.898865
 31
0.0
  0
LWPOLYLINE
  5
118
100
AcDbEntity
  8
025-DWG
  6
CONTINUOUS
100
AcDbPolyline
 90
        5
 70
   128
 43
0.0
 10
-742.256103
 20
703.894643
 10
-742.201602
 20
703.894961
 10
-742.147295
 20
703.895283
 10
-741.838584
 20
703.897195
 10
-741.59099
 20
703.898865
  0
LWPOLYLINE
  5
119
100
AcDbEntity
  8
025-DWG
  6
CONTINUOUS
100
AcDbPolyline
 90
       37
 70
   128
 43
0.0
 10
-749.256359
 20
701.855622
 10
-748.883886
 20
701.558777
 10
-748.464904
 20
701.332543
 10
-748.012144
 20
701.183794
 10
-747.539362
 20
701.11705
 10
-747.060925
 20
701.134339
 10
-746.591368
 20
701.235136
 10
-746.144959
 20
701.416377
 10
-745.735262
 20
701.672556
 10
-745.374726
 20
701.995889
 10
-745.074305
 20
702.376552
 10
-744.843127
 20
702.802978
 10
-744.688217
 20
703.262211
 10
-744.614281
 20
703.740298
 10
-744.623566
 20
704.222711
 10
-744.71579
 20
704.694793
 10
-744.888151
 20
705.142199
 10
-745.135411
 20
705.551337
 10
-745.450057
 20
705.909774
 10
-745.82253
 20
706.206619
 10
-746.241512
 20
706.432853
 10
-746.694273
 20
706.581602
 10
-747.167054
 20
706.648346
 10
-747.645492
 20
706.631057
 10
-748.115049
 20
706.53026
 10
-748.561458
 20
706.349019
 10
-748.971154
 20
706.09284
 10
-749.331691
 20
705.769507
 10
-749.632112
 20
705.388844
 10
-749.863289
 20
704.962418
 10
-750.0182
 20
704.503185
 10
-750.092135
 20
704.025098
 10
-750.08285
 20
703.542685
 10
-749.990626
 20
703.070603
 10
-749.818266
 20
702.623197
 10
-749.571006
 20
702.214059
 10
-749.256359
 20
701.855622
  0
LWPOLYLINE
  5
11A
100
AcDbEntity
  8
025-DWG
  6
CONTINUOUS
100
AcDbPolyline
 90
        9
 70
   128
 43
0.0
 10
-749.909984
 20
704.682587
 10
-749.74319
 20
705.062052
 10
-749.067429
 20
705.786973
 10
-748.207322
 20
706.241584
 10
-747.263444
 20
706.386566
 10
-746.333914
 20
706.214889
 10
-745.511922
 20
705.744294
 10
-744.885905
 20
705.017835
 10
-744.678378
 20
704.483629
  0
LWPOLYLINE
  5
11B
100
AcDbEntity
  8
025-DWG
  6
CONTINUOUS
100
AcDbPolyline
 90
        5
 70
   128
 43
0.0
 10
-764.414882
 20
718.495731
 10
-764.440154
 20
718.592187
 10
-764.458571
 20
718.690296
 10
-764.470416
 20
718.790286
 10
-764.475733
 20
718.891261
  0
LWPOLYLINE
  5
11C
100
AcDbEntity
  8
025-DWG
  6
CONTINUOUS
100
AcDbPolyline
 90
        9
 70
   128
 43
0.0
 10
-765.412895
 20
718.048937
 10
-765.228695
 20
718.075586
 10
-765.053077
 20
718.130609
 10
-764.892148
 20
718.212091
 10
-764.751509
 20
718.317198
 10
-764.636049
 20
718.442274
 10
-764.549786
 20
718.582968
 10
-764.49572
 20
718.734386
 10
-764.475733
 20
718.891261
  0
LWPOLYLINE
  5
11D
100
AcDbEntity
  8
025-DWG
  6
CONTINUOUS
100
AcDbPolyline
 90
        5
 70
   128
 43
0.0
 10
-765.412895
 20
718.048937
 10
-765.402411
 20
717.948766
 10
-765.379055
 20
717.849427
 10
-765.34209
 20
717.750457
 10
-765.291337
 20
717.653399
  0
LWPOLYLINE
  5
11E
100
AcDbEntity
  8
025-DWG
  6
CONTINUOUS
100
AcDbPolyline
 90
        6
 70
   128
 43
0.0
 10
-763.274262
 20
715.827358
 10
-763.278952
 20
715.838401
 10
-763.646048
 20
716.677054
 10
-763.922281
 20
717.290951
 10
-764.183804
 20
717.886802
 10
-764.414882
 20
718.495731
  0
LWPOLYLINE
  5
11F
100
AcDbEntity
  8
025-DWG
  6
CONTINUOUS
100
AcDbPolyline
 90
        9
 70
   128
 43
0.0
 10
-765.291337
 20
717.653399
 10
-765.135158
 20
717.699723
 10
-764.984963
 20
717.767845
 10
-764.844865
 20
717.855902
 10
-764.718703
 20
717.961481
 10
-764.60993
 20
718.081691
 10
-764.521525
 20
718.213239
 10
-764.45591
 20
718.352524
 10
-764.414882
 20
718.495731
  0
LWPOLYLINE
  5
120
100
AcDbEntity
  8
025-DWG
  6
CONTINUOUS
100
AcDbPolyline
 90
        6
 70
   128
 43
0.0
 10
-765.291337
 20
717.653399
 10
-765.017633
 20
717.329338
 10
-764.521886
 20
716.877625
 10
-763.679746
 20
716.170468
 10
-763.281972
 20
715.83397
 10
-763.274262
 20
715.827358
  0
LWPOLYLINE
  5
121
100
AcDbEntity
  8
025-DWG
  6
CONTINUOUS
100
AcDbPolyline
 90
        9
 70
   128
 43
0.0
 10
-752.529884
 20
693.975548
 10
-752.545733
 20
694.022111
 10
-752.557386
 20
694.096391
 10
-752.564495
 20
694.196175
 10
-752.56685
 20
694.31849
 10
-752.56438
 20
694.459693
 10
-752.557158
 20
694.615576
 10
-752.5454
 20
694.781497
 10
-752.529457
 20
694.952512
  0
LWPOLYLINE
  5
122
100
AcDbEntity
  8
025-DWG
  6
CONTINUOUS
100
AcDbPolyline
 90
        7
 70
   128
 43
0.0
 10
-752.529884
 20
693.975548
 10
-752.863822
 20
694.016077
 10
-753.203721
 20
694.068017
 10
-753.520793
 20
694.126823
 10
-753.824523
 20
694.194052
 10
-753.918521
 20
694.21744
 10
-754.009144
 20
694.241356
  0
LINE
  5
123
100
AcDbEntity
  8
025-DWG
  6
CONTINUOUS
100
AcDbLine
 10
-753.158073
 20
703.898865
 30
0.0
 11
-755.090006
 21
703.898865
 31
0.0
  0
LWPOLYLINE
  5
124
100
AcDbEntity
  8
025-DWG
  6
CONTINUOUS
100
AcDbPolyline
 90
        3
 70
   128
 43
0.0
 10
-755.938198
 20
694.774137
 10
-754.395131
 20
694.346642
 10
-754.009144
 20
694.241356
  0
LINE
  5
125
100
AcDbEntity
  8
025-DWG
  6
CONTINUOUS
100
AcDbLine
 10
-753.264487
 20
695.208797
 30
0.0
 11
-755.185447
 21
695.740473
 31
0.0
  0
LINE
  5
126
100
AcDbEntity
  8
025-DWG
  6
CONTINUOUS
100
AcDbLine
 10
-753.158073
 20
703.898865
 30
0.0
 11
-753.264487
 21
695.208797
 31
0.0
  0
LWPOLYLINE
  5
127
100
AcDbEntity
  8
025-DWG
  6
CONTINUOUS
100
AcDbPolyline
 90
        6
 70
   128
 43
0.0
 10
-753.264487
 20
695.208797
 10
-753.12264
 20
695.139548
 10
-752.960569
 20
695.073891
 10
-752.790798
 20
695.017498
 10
-752.608014
 20
694.969336
 10
-752.529457
 20
694.952512
  0
LWPOLYLINE
  5
128
100
AcDbEntity
  8
025-DWG
  6
CONTINUOUS
100
AcDbPolyline
 90
        9
 70
   128
 43
0.0
 10
-754.009144
 20
694.241356
 10
-753.890176
 20
694.268792
 10
-753.770776
 20
694.329757
 10
-753.655166
 20
694.422098
 10
-753.547429
 20
694.54255
 10
-753.451375
 20
694.686858
 10
-753.370398
 20
694.84992
 10
-753.307359
 20
695.025974
 10
-753.264487
 20
695.208797
  0
LINE
  5
129
100
AcDbEntity
  8
025-DWG
  6
CONTINUOUS
100
AcDbLine
 10
-753.158043
 20
703.898865
 30
0.0
 11
-753.158073
 21
703.898865
 31
0.0
  0
LINE
  5
12A
100
AcDbEntity
  8
025-DWG
  6
CONTINUOUS
100
AcDbLine
 10
-755.868754
 20
703.903326
 30
0.0
 11
-755.964618
 21
695.7492
 31
0.0
  0
LINE
  5
12B
100
AcDbEntity
  8
025-DWG
  6
CONTINUOUS
100
AcDbLine
 10
-755.185447
 20
695.740473
 30
0.0
 11
-755.090006
 21
703.898865
 31
0.0
  0
LWPOLYLINE
  5
12C
100
AcDbEntity
  8
025-DWG
  6
CONTINUOUS
100
AcDbPolyline
 90
        9
 70
   128
 43
0.0
 10
-755.964618
 20
695.7492
 10
-755.861978
 20
695.747976
 10
-755.758664
 20
695.746765
 10
-755.655781
 20
695.745581
 10
-755.554426
 20
695.744435
 10
-755.455681
 20
695.74334
 10
-755.360602
 20
695.742307
 10
-755.270202
 20
695.741348
 10
-755.185447
 20
695.740473
  0
LWPOLYLINE
  5
12D
100
AcDbEntity
  8
025-DWG
  6
CONTINUOUS
100
AcDbPolyline
 90
        9
 70
   128
 43
0.0
 10
-755.938198
 20
694.774137
 10
-755.818754
 20
694.800759
 10
-755.698604
 20
694.861126
 10
-755.582025
 20
694.953089
 10
-755.473162
 20
695.073378
 10
-755.375891
 20
695.217711
 10
-755.293671
 20
695.380955
 10
-755.229427
 20
695.5573
 10
-755.185447
 20
695.740473
  0
LWPOLYLINE
  5
12E
100
AcDbEntity
  8
025-DWG
  6
CONTINUOUS
100
AcDbPolyline
 90
        9
 70
   128
 43
0.0
 10
-755.964618
 20
695.7492
 10
-755.980876
 20
695.57909
 10
-755.991764
 20
695.414
 10
-755.996961
 20
695.258805
 10
-755.996314
 20
695.118083
 10
-755.98984
 20
694.995988
 10
-755.977732
 20
694.896125
 10
-755.960347
 20
694.821439
 10
-755.938198
 20
694.774137
  0
LWPOLYLINE
  5
12F
100
AcDbEntity
  8
025-DWG
  6
CONTINUOUS
100
AcDbPolyline
 90
        5
 70
   128
 43
0.0
 10
-755.868754
 20
703.903326
 10
-755.8099
 20
703.902959
 10
-755.717786
 20
703.902394
 10
-755.386011
 20
703.900455
 10
-755.090034
 20
703.898865
  0
LINE
  5
130
100
AcDbEntity
  8
025-DWG
  6
CONTINUOUS
100
AcDbLine
 10
-755.090006
 20
703.898865
 30
0.0
 11
-755.090034
 21
703.898865
 31
0.0
  0
LWPOLYLINE
  5
131
100
AcDbEntity
  8
025-DWG
  6
CONTINUOUS
100
AcDbPolyline
 90
       37
 70
   128
 43
0.0
 10
-695.632367
 20
701.855622
 10
-696.00484
 20
701.558777
 10
-696.423822
 20
701.332543
 10
-696.876582
 20
701.183794
 10
-697.349364
 20
701.11705
 10
-697.827802
 20
701.134339
 10
-698.297358
 20
701.235136
 10
-698.743767
 20
701.416377
 10
-699.153464
 20
701.672556
 10
-699.514
 20
701.995889
 10
-699.814421
 20
702.376552
 10
-700.045599
 20
702.802978
 10
-700.200509
 20
703.262211
 10
-700.274445
 20
703.740298
 10
-700.26516
 20
704.222711
 10
-700.172936
 20
704.694793
 10
-700.000575
 20
705.142199
 10
-699.753315
 20
705.551337
 10
-699.438669
 20
705.909774
 10
-699.066196
 20
706.206619
 10
-698.647214
 20
706.432853
 10
-698.194454
 20
706.581602
 10
-697.721672
 20
706.648346
 10
-697.243234
 20
706.631057
 10
-696.773677
 20
706.53026
 10
-696.327268
 20
706.349019
 10
-695.917572
 20
706.09284
 10
-695.557035
 20
705.769507
 10
-695.256614
 20
705.388844
 10
-695.025437
 20
704.962418
 10
-694.870526
 20
704.503185
 10
-694.796591
 20
704.025098
 10
-694.805876
 20
703.542685
 10
-694.8981
 20
703.070603
 10
-695.07046
 20
702.623197
 10
-695.31772
 20
702.214059
 10
-695.632367
 20
701.855622
  0
LWPOLYLINE
  5
132
100
AcDbEntity
  8
025-DWG
  6
CONTINUOUS
100
AcDbPolyline
 90
        9
 70
   128
 43
0.0
 10
-694.985105
 20
704.706704
 10
-695.321751
 20
705.302249
 10
-696.062645
 20
705.953116
 10
-696.958248
 20
706.317975
 10
-697.907868
 20
706.368197
 10
-698.814933
 20
706.104595
 10
-699.587514
 20
705.552028
 10
-700.139446
 20
704.7621
 10
-700.214704
 20
704.489182
  0
LWPOLYLINE
  5
133
100
AcDbEntity
  8
025-DWG
  6
CONTINUOUS
100
AcDbPolyline
 90
        9
 70
   128
 43
0.0
 10
-705.61824
 20
694.342233
 10
-705.609805
 20
694.169484
 10
-705.604134
 20
694.001946
 10
-705.601396
 20
693.844672
 10
-705.601676
 20
693.702407
 10
-705.604964
 20
693.579441
 10
-705.611161
 20
693.479485
 10
-705.62008
 20
693.405553
 10
-705.631452
 20
693.359875
  0
LWPOLYLINE
  5
134
100
AcDbEntity
  8
025-DWG
  6
CONTINUOUS
100
AcDbPolyline
 90
        9
 70
   128
 43
0.0
 10
-705.631452
 20
693.359875
 10
-705.495127
 20
693.402871
 10
-705.3651
 20
693.474551
 10
-705.245344
 20
693.572727
 10
-705.139513
 20
693.6944
 10
-705.050841
 20
693.835856
 10
-704.982034
 20
693.992774
 10
-704.935195
 20
694.160363
 10
-704.911752
 20
694.333506
  0
LWPOLYLINE
  5
135
100
AcDbEntity
  8
025-DWG
  6
CONTINUOUS
100
AcDbPolyline
 90
        9
 70
   128
 43
0.0
 10
-704.131208
 20
693.131324
 10
-703.995581
 20
693.174961
 10
-703.866375
 20
693.247048
 10
-703.747508
 20
693.345399
 10
-703.642584
 20
693.467032
 10
-703.554785
 20
693.608259
 10
-703.486773
 20
693.764797
 10
-703.44061
 20
693.931901
 10
-703.417697
 20
694.104502
  0
LWPOLYLINE
  5
136
100
AcDbEntity
  8
025-DWG
  6
CONTINUOUS
100
AcDbPolyline
 90
        9
 70
   128
 43
0.0
 10
-702.795629
 20
693.104905
 10
-702.777602
 20
693.151015
 10
-702.762566
 20
693.225194
 10
-702.750973
 20
693.325216
 10
-702.743171
 20
693.44808
 10
-702.739395
 20
693.590099
 10
-702.739757
 20
693.747011
 10
-702.744247
 20
693.914106
 10
-702.75273
 20
694.086371
  0
LWPOLYLINE
  5
137
100
AcDbEntity
  8
025-DWG
  6
CONTINUOUS
100
AcDbPolyline
 90
        7
 70
   128
 43
0.0
 10
-702.795629
 20
693.104905
 10
-703.116498
 20
693.090247
 10
-703.431092
 20
693.086319
 10
-703.713018
 20
693.09341
 10
-703.970309
 20
693.111634
 10
-704.053422
 20
693.120801
 10
-704.131208
 20
693.131324
  0
LWPOLYLINE
  5
138
100
AcDbEntity
  8
025-DWG
  6
CONTINUOUS
100
AcDbPolyline
 90
        3
 70
   128
 43
0.0
 10
-705.631452
 20
693.359875
 10
-704.40797
 20
693.172776
 10
-704.131208
 20
693.131324
  0
LINE
  5
139
100
AcDbEntity
  8
025-DWG
  6
CONTINUOUS
100
AcDbLine
 10
-705.504666
 20
703.903326
 30
0.0
 11
-705.61824
 21
694.342233
 31
0.0
  0
LINE
  5
13A
100
AcDbEntity
  8
025-DWG
  6
CONTINUOUS
100
AcDbLine
 10
-704.911752
 20
694.333506
 30
0.0
 11
-704.798689
 21
703.898865
 31
0.0
  0
LINE
  5
13B
100
AcDbEntity
  8
025-DWG
  6
CONTINUOUS
100
AcDbLine
 10
-703.297759
 20
703.898865
 30
0.0
 11
-703.417697
 21
694.104502
 31
0.0
  0
LINE
  5
13C
100
AcDbEntity
  8
025-DWG
  6
CONTINUOUS
100
AcDbLine
 10
-702.75273
 20
694.086371
 30
0.0
 11
-702.632623
 21
703.894643
 31
0.0
  0
LWPOLYLINE
  5
13D
100
AcDbEntity
  8
025-DWG
  6
CONTINUOUS
100
AcDbPolyline
 90
        9
 70
   128
 43
0.0
 10
-705.61824
 20
694.342233
 10
-705.51585
 20
694.341009
 10
-705.41544
 20
694.339799
 10
-705.318085
 20
694.338614
 10
-705.224823
 20
694.337468
 10
-705.13665
 20
694.336373
 10
-705.054508
 20
694.33534
 10
-704.979275
 20
694.334382
 10
-704.911752
 20
694.333506
  0
LINE
  5
13E
100
AcDbEntity
  8
025-DWG
  6
CONTINUOUS
100
AcDbLine
 10
-703.417697
 20
694.104502
 30
0.0
 11
-704.911752
 21
694.333506
 31
0.0
  0
LWPOLYLINE
  5
13F
100
AcDbEntity
  8
025-DWG
  6
CONTINUOUS
100
AcDbPolyline
 90
        6
 70
   128
 43
0.0
 10
-703.417697
 20
694.104502
 10
-703.314199
 20
694.081793
 10
-703.189788
 20
694.067846
 10
-703.054499
 20
694.064042
 10
-702.904475
 20
694.070412
 10
-702.75273
 20
694.086371
  0
LWPOLYLINE
  5
140
100
AcDbEntity
  8
025-DWG
  6
CONTINUOUS
100
AcDbPolyline
 90
        5
 70
   128
 43
0.0
 10
-705.504666
 20
703.903326
 10
-705.445644
 20
703.902959
 10
-705.355012
 20
703.902394
 10
-705.046303
 20
703.900455
 10
-704.798711
 20
703.898865
  0
LINE
  5
141
100
AcDbEntity
  8
025-DWG
  6
CONTINUOUS
100
AcDbLine
 10
-704.798711
 20
703.898865
 30
0.0
 11
-704.798689
 21
703.898865
 31
0.0
  0
LINE
  5
142
100
AcDbEntity
  8
025-DWG
  6
CONTINUOUS
100
AcDbLine
 10
-704.798689
 20
703.898865
 30
0.0
 11
-703.297759
 21
703.898865
 31
0.0
  0
LINE
  5
143
100
AcDbEntity
  8
025-DWG
  6
CONTINUOUS
100
AcDbLine
 10
-703.297736
 20
703.898865
 30
0.0
 11
-703.297759
 21
703.898865
 31
0.0
  0
LWPOLYLINE
  5
144
100
AcDbEntity
  8
025-DWG
  6
CONTINUOUS
100
AcDbPolyline
 90
        5
 70
   128
 43
0.0
 10
-703.297736
 20
703.898865
 10
-703.050142
 20
703.897195
 10
-702.741431
 20
703.895283
 10
-702.687124
 20
703.894961
 10
-702.632623
 20
703.894643
  0
LWPOLYLINE
  5
145
100
AcDbEntity
  8
025-DWG
  6
CONTINUOUS
100
AcDbPolyline
 90
        7
 70
   128
 43
0.0
 10
-690.879582
 20
694.241356
 10
-691.160595
 20
694.171417
 10
-691.478356
 20
694.105132
 10
-691.8067
 20
694.048157
 10
-692.155198
 20
693.999034
 10
-692.257019
 20
693.986808
 10
-692.358842
 20
693.975548
  0
LWPOLYLINE
  5
146
100
AcDbEntity
  8
025-DWG
  6
CONTINUOUS
100
AcDbPolyline
 90
        9
 70
   128
 43
0.0
 10
-692.35927
 20
694.952512
 10
-692.343326
 20
694.781497
 10
-692.331568
 20
694.615576
 10
-692.324346
 20
694.459693
 10
-692.321876
 20
694.31849
 10
-692.324231
 20
694.196175
 10
-692.33134
 20
694.096391
 10
-692.342993
 20
694.022111
 10
-692.358842
 20
693.975548
  0
LINE
  5
147
100
AcDbEntity
  8
025-DWG
  6
CONTINUOUS
100
AcDbLine
 10
-691.624239
 20
695.208797
 30
0.0
 11
-691.730653
 21
703.898865
 31
0.0
  0
LINE
  5
148
100
AcDbEntity
  8
025-DWG
  6
CONTINUOUS
100
AcDbLine
 10
-692.468771
 20
703.894643
 30
0.0
 11
-692.35927
 21
694.952512
 31
0.0
  0
LINE
  5
149
100
AcDbEntity
  8
025-DWG
  6
CONTINUOUS
100
AcDbLine
 10
-689.79872
 20
703.898865
 30
0.0
 11
-689.703279
 21
695.740473
 31
0.0
  0
LINE
  5
14A
100
AcDbEntity
  8
025-DWG
  6
CONTINUOUS
100
AcDbLine
 10
-689.703279
 20
695.740473
 30
0.0
 11
-691.624239
 21
695.208797
 31
0.0
  0
LWPOLYLINE
  5
14B
100
AcDbEntity
  8
025-DWG
  6
CONTINUOUS
100
AcDbPolyline
 90
        9
 70
   128
 43
0.0
 10
-691.624239
 20
695.208797
 10
-691.581367
 20
695.025974
 10
-691.518328
 20
694.84992
 10
-691.437351
 20
694.686858
 10
-691.341297
 20
694.54255
 10
-691.23356
 20
694.422098
 10
-691.11795
 20
694.329757
 10
-690.99855
 20
694.268792
 10
-690.879582
 20
694.241356
  0
LWPOLYLINE
  5
14C
100
AcDbEntity
  8
025-DWG
  6
CONTINUOUS
100
AcDbPolyline
 90
        6
 70
   128
 43
0.0
 10
-692.35927
 20
694.952512
 10
-692.193818
 20
694.990658
 10
-692.026994
 20
695.03964
 10
-691.873192
 20
695.094759
 10
-691.727226
 20
695.157286
 10
-691.624239
 20
695.208797
  0
LINE
  5
14D
100
AcDbEntity
  8
025-DWG
  6
CONTINUOUS
100
AcDbLine
 10
-691.730653
 20
703.898865
 30
0.0
 11
-689.79872
 21
703.898865
 31
0.0
  0
LINE
  5
14E
100
AcDbEntity
  8
025-DWG
  6
CONTINUOUS
100
AcDbLine
 10
-689.79872
 20
703.898865
 30
0.0
 11
-689.798692
 21
703.898865
 31
0.0
  0
LWPOLYLINE
  5
14F
100
AcDbEntity
  8
025-DWG
  6
CONTINUOUS
100
AcDbPolyline
 90
        5
 70
   128
 43
0.0
 10
-689.798692
 20
703.898865
 10
-689.502715
 20
703.900455
 10
-689.17094
 20
703.902394
 10
-689.078826
 20
703.902959
 10
-689.019972
 20
703.903326
  0
LINE
  5
150
100
AcDbEntity
  8
025-DWG
  6
CONTINUOUS
100
AcDbLine
 10
-691.730653
 20
703.898865
 30
0.0
 11
-691.730683
 21
703.898865
 31
0.0
  0
LWPOLYLINE
  5
151
100
AcDbEntity
  8
025-DWG
  6
CONTINUOUS
100
AcDbPolyline
 90
        5
 70
   128
 43
0.0
 10
-692.468771
 20
703.894643
 10
-692.41389
 20
703.894961
 10
-692.358438
 20
703.895283
 10
-692.026662
 20
703.897195
 10
-691.730683
 20
703.898865
  0
LWPOLYLINE
  5
152
100
AcDbEntity
  8
025-DWG
  6
CONTINUOUS
100
AcDbPolyline
 90
        5
 70
   128
 43
0.0
 10
-665.277667
 20
714.201754
 10
-668.811963
 20
715.135395
 10
-672.375929
 20
716.024484
 10
-675.972436
 20
716.865715
 10
-679.597383
 20
717.654047
  0
LWPOLYLINE
  5
153
100
AcDbEntity
  8
035-DWG
  6
CONTINUOUS
100
AcDbPolyline
 90
        6
 70
   128
 43
0.0
 10
-681.614464
 20
715.827992
 10
-680.444363
 20
715.584201
 10
-676.412291
 20
714.693534
 10
-672.411309
 20
713.735154
 10
-668.437793
 20
712.713694
 10
-664.497895
 20
711.636192
  0
LWPOLYLINE
  5
154
100
AcDbEntity
  8
025-DWG
  6
CONTINUOUS
100
AcDbPolyline
 90
        5
 70
   128
 43
0.0
 10
-688.950528
 20
694.774137
 10
-683.993023
 20
695.377294
 10
-679.06495
 20
696.060739
 10
-672.168791
 20
697.158611
 10
-665.346748
 20
698.408697
  0
LWPOLYLINE
  5
155
100
AcDbEntity
  8
025-DWG
  6
CONTINUOUS
100
AcDbPolyline
 90
        5
 70
   128
 43
0.0
 10
-665.301268
 20
699.36502
 10
-672.749572
 20
698.016395
 10
-677.997656
 20
697.182156
 10
-683.295289
 20
696.436368
 10
-688.924108
 20
695.7492
  0
LINE
  5
156
100
AcDbEntity
  8
025-DWG
  6
CONTINUOUS
100
AcDbLine
 10
-663.80616
 20
700.286751
 30
0.0
 11
-663.80616
 21
711.636192
 31
0.0
  0
LINE
  5
157
100
AcDbEntity
  8
035-DWG
  6
CONTINUOUS
100
AcDbLine
 10
-664.497895
 20
711.636192
 30
0.0
 11
-664.497895
 21
700.286751
 31
0.0
  0
LINE
  5
158
100
AcDbEntity
  8
025-DWG
  6
CONTINUOUS
100
AcDbLine
 10
-660.248812
 20
698.197255
 30
0.0
 11
-663.80616
 21
700.286751
 31
0.0
  0
LWPOLYLINE
  5
159
100
AcDbEntity
  8
035-DWG
  6
CONTINUOUS
100
AcDbPolyline
 90
        6
 70
   128
 43
0.0
 10
-660.248812
 20
698.197255
 10
-660.340988
 20
697.627897
 10
-660.605879
 20
697.123479
 10
-661.013922
 20
696.724145
 10
-661.571191
 20
696.440293
 10
-661.839205
 20
696.36909
  0
LWPOLYLINE
  5
15A
100
AcDbEntity
  8
025-DWG
  6
CONTINUOUS
100
AcDbPolyline
 90
        6
 70
   128
 43
0.0
 10
-664.497895
 20
700.286751
 10
-664.545517
 20
699.996035
 10
-664.682771
 20
699.738316
 10
-664.893979
 20
699.535908
 10
-665.177878
 20
699.39637
 10
-665.301268
 20
699.36502
  0
LWPOLYLINE
  5
15B
100
AcDbEntity
  8
025-DWG
  6
CONTINUOUS
100
AcDbPolyline
 90
        9
 70
   128
 43
0.0
 10
-665.301268
 20
699.36502
 10
-665.27584
 20
699.201441
 10
-665.258998
 20
699.042425
 10
-665.251212
 20
698.892405
 10
-665.252699
 20
698.755567
 10
-665.263419
 20
698.635726
 10
-665.283071
 20
698.536225
 10
-665.311108
 20
698.459838
 10
-665.346748
 20
698.408697
  0
LWPOLYLINE
  5
15C
100
AcDbEntity
  8
025-DWG
  6
CONTINUOUS
100
AcDbPolyline
 90
        5
 70
   128
 43
0.0
 10
-665.346748
 20
698.408697
 10
-664.714036
 20
698.674217
 10
-664.206596
 20
699.136653
 10
-663.896466
 20
699.728246
 10
-663.80616
 20
700.286751
  0
LINE
  5
15D
100
AcDbEntity
  8
025-DWG
  6
CONTINUOUS
100
AcDbLine
 10
-664.497895
 20
700.286751
 30
0.0
 11
-663.80616
 21
700.286751
 31
0.0
  0
LWPOLYLINE
  5
15E
100
AcDbEntity
  8
025-DWG
  6
CONTINUOUS
100
AcDbPolyline
 90
        4
 70
   128
 43
0.0
 10
-665.346748
 20
698.408697
 10
-664.698604
 20
698.028369
 10
-663.115907
 20
697.106204
 10
-661.839205
 20
696.36909
  0
LWPOLYLINE
  5
15F
100
AcDbEntity
  8
025-DWG
  6
CONTINUOUS
100
AcDbPolyline
 90
        9
 70
   128
 43
0.0
 10
-664.22601
 20
715.043445
 10
-664.265197
 20
714.883175
 10
-664.338689
 20
714.72876
 10
-664.443802
 20
714.585843
 10
-664.576694
 20
714.459644
 10
-664.732512
 20
714.354775
 10
-664.905561
 20
714.275066
 10
-665.08952
 20
714.22343
 10
-665.277667
 20
714.201754
  0
LINE
  5
160
100
AcDbEntity
  8
025-DWG
  6
CONTINUOUS
100
AcDbLine
 10
-663.80616
 20
711.636192
 30
0.0
 11
-664.497895
 21
711.636192
 31
0.0
  0
LWPOLYLINE
  5
161
100
AcDbEntity
  8
025-DWG
  6
CONTINUOUS
100
AcDbPolyline
 90
        5
 70
   128
 43
0.0
 10
-663.80616
 20
711.636192
 10
-663.852131
 20
712.854635
 10
-663.975495
 20
713.93518
 10
-664.182627
 20
714.902058
 10
-664.22601
 20
715.043445
  0
LWPOLYLINE
  5
162
100
AcDbEntity
  8
025-DWG
  6
CONTINUOUS
100
AcDbPolyline
 90
        7
 70
   128
 43
0.0
 10
-665.277667
 20
714.201754
 10
-665.056445
 20
713.78831
 10
-664.849353
 20
713.27089
 10
-664.716945
 20
712.839354
 10
-664.60348
 20
712.354951
 10
-664.542705
 20
712.004683
 10
-664.497895
 20
711.636192
  0
LWPOLYLINE
  5
163
100
AcDbEntity
  8
025-DWG
  6
CONTINUOUS
100
AcDbPolyline
 90
        9
 70
   128
 43
0.0
 10
-688.950528
 20
694.774137
 10
-688.928379
 20
694.821439
 10
-688.910994
 20
694.896125
 10
-688.898886
 20
694.995988
 10
-688.892412
 20
695.118083
 10
-688.891765
 20
695.258805
 10
-688.896962
 20
695.414
 10
-688.90785
 20
695.57909
 10
-688.924108
 20
695.7492
  0
LWPOLYLINE
  5
164
100
AcDbEntity
  8
025-DWG
  6
CONTINUOUS
100
AcDbPolyline
 90
        9
 70
   128
 43
0.0
 10
-679.475824
 20
718.04959
 10
-679.660025
 20
718.076238
 10
-679.835644
 20
718.13126
 10
-679.996574
 20
718.212741
 10
-680.137215
 20
718.317848
 10
-680.252676
 20
718.442925
 10
-680.338939
 20
718.583619
 10
-680.393006
 20
718.735038
 10
-680.412993
 20
718.891914
  0
LWPOLYLINE
  5
165
100
AcDbEntity
  8
025-DWG
  6
CONTINUOUS
100
AcDbPolyline
 90
        5
 70
   128
 43
0.0
 10
-680.412993
 20
718.891914
 10
-680.418192
 20
718.792334
 10
-680.429813
 20
718.693201
 10
-680.448256
 20
718.594255
 10
-680.473846
 20
718.496379
  0
LWPOLYLINE
  5
166
100
AcDbEntity
  8
025-DWG
  6
CONTINUOUS
100
AcDbPolyline
 90
        5
 70
   128
 43
0.0
 10
-679.597383
 20
717.654047
 10
-679.547723
 20
717.748668
 10
-679.510872
 20
717.846123
 10
-679.486733
 20
717.946927
 10
-679.475824
 20
718.04959
  0
LWPOLYLINE
  5
167
100
AcDbEntity
  8
025-DWG
  6
CONTINUOUS
100
AcDbPolyline
 90
        9
 70
   128
 43
0.0
 10
-679.597383
 20
717.654047
 10
-679.753564
 20
717.700369
 10
-679.90376
 20
717.768492
 10
-680.043858
 20
717.856548
 10
-680.170021
 20
717.962127
 10
-680.278795
 20
718.082337
 10
-680.367201
 20
718.213886
 10
-680.432817
 20
718.353171
 10
-680.473846
 20
718.496379
  0
LWPOLYLINE
  5
168
100
AcDbEntity
  8
025-DWG
  6
CONTINUOUS
100
AcDbPolyline
 90
        6
 70
   128
 43
0.0
 10
-681.614464
 20
715.827992
 10
-681.606754
 20
715.834604
 10
-681.20899
 20
716.171097
 10
-680.366841
 20
716.878266
 10
-679.87109
 20
717.329984
 10
-679.597383
 20
717.654047
  0
LWPOLYLINE
  5
169
100
AcDbEntity
  8
025-DWG
  6
CONTINUOUS
100
AcDbPolyline
 90
        6
 70
   128
 43
0.0
 10
-680.473846
 20
718.496379
 10
-680.704924
 20
717.887447
 10
-680.966449
 20
717.291589
 10
-681.242682
 20
716.677687
 10
-681.609774
 20
715.839035
 10
-681.614464
 20
715.827992
  0
LINE
  5
16A
100
AcDbEntity
  8
025-DWG
  6
CONTINUOUS
100
AcDbLine
 10
-688.924108
 20
695.7492
 30
0.0
 11
-689.019972
 21
703.903326
 31
0.0
  0
LWPOLYLINE
  5
16B
100
AcDbEntity
  8
025-DWG
  6
CONTINUOUS
100
AcDbPolyline
 90
        3
 70
   128
 43
0.0
 10
-690.879582
 20
694.241356
 10
-689.336068
 20
694.666336
 10
-688.950528
 20
694.774137
  0
LWPOLYLINE
  5
16C
100
AcDbEntity
  8
025-DWG
  6
CONTINUOUS
100
AcDbPolyline
 90
        9
 70
   128
 43
0.0
 10
-689.703279
 20
695.740473
 10
-689.618524
 20
695.741348
 10
-689.528125
 20
695.742307
 10
-689.433045
 20
695.74334
 10
-689.3343
 20
695.744435
 10
-689.232945
 20
695.745581
 10
-689.130062
 20
695.746765
 10
-689.026749
 20
695.747976
 10
-688.924108
 20
695.7492
  0
LWPOLYLINE
  5
16D
100
AcDbEntity
  8
025-DWG
  6
CONTINUOUS
100
AcDbPolyline
 90
        9
 70
   128
 43
0.0
 10
-689.703279
 20
695.740473
 10
-689.659299
 20
695.5573
 10
-689.595055
 20
695.380955
 10
-689.512835
 20
695.217711
 10
-689.415564
 20
695.073378
 10
-689.306701
 20
694.953089
 10
-689.190122
 20
694.861126
 10
-689.069972
 20
694.800759
 10
-688.950528
 20
694.774137
  0
LWPOLYLINE
  5
16E
100
AcDbEntity
  8
035-DWG
  6
CONTINUOUS
100
AcDbPolyline
 90
       15
 70
   128
 43
0.0
 10
-674.301151
 20
744.945634
 10
-680.955076
 20
746.324873
 10
-687.684476
 20
747.505653
 10
-694.47322
 20
748.482421
 10
-701.305174
 20
749.249621
 10
-708.374737
 20
749.81614
 10
-715.477683
 20
750.155494
 10
-722.593808
 20
750.266356
 10
-729.702905
 20
750.147397
 10
-736.564324
 20
749.813381
 10
-743.403769
 20
749.266603
 10
-750.203499
 20
748.51004
 10
-757.061418
 20
747.529191
 10
-763.861511
 20
746.338996
 10
-770.587575
 20
744.945634
  0
LWPOLYLINE
  5
16F
100
AcDbEntity
  8
025-DWG
  6
CONTINUOUS
100
AcDbPolyline
 90
       15
 70
   128
 43
0.0
 10
-770.587469
 20
743.969688
 10
-763.933552
 20
745.34368
 10
-757.204161
 20
746.519968
 10
-750.415427
 20
747.49302
 10
-743.583481
 20
748.2573
 10
-736.513928
 20
748.821663
 10
-729.410992
 20
749.159726
 10
-722.294877
 20
749.270164
 10
-715.185789
 20
749.151656
 10
-708.324393
 20
748.81891
 10
-701.484971
 20
748.274213
 10
-694.685264
 20
747.520528
 10
-687.827368
 20
746.543412
 10
-681.027299
 20
745.357746
 10
-674.301257
 20
743.969688
  0
LWPOLYLINE
  5
170
100
AcDbEntity
  8
025-DWG
  6
CONTINUOUS
100
AcDbPolyline
 90
       15
 70
   128
 43
0.0
 10
-674.301257
 20
738.111202
 10
-680.871463
 20
739.500989
 10
-687.517149
 20
740.69356
 10
-694.222432
 20
741.683363
 10
-700.971429
 20
742.464843
 10
-707.956118
 20
743.047355
 10
-714.974918
 20
743.403989
 10
-722.007857
 20
743.533323
 10
-729.034963
 20
743.433935
 10
-736.007574
 20
743.107967
 10
-742.958029
 20
742.558143
 10
-749.867243
 20
741.787602
 10
-756.840567
 20
740.780459
 10
-763.753113
 20
739.552767
 10
-770.587469
 20
738.111202
  0
LWPOLYLINE
  5
171
100
AcDbEntity
  8
025-DWG
  6
CONTINUOUS
100
AcDbPolyline
 90
       19
 70
   128
 43
0.0
 10
-687.183029
 20
738.471799
 10
-689.005728
 20
738.778523
 10
-693.134539
 20
739.392225
 10
-697.279282
 20
739.927535
 10
-701.4294
 20
740.383102
 10
-705.575252
 20
740.758045
 10
-709.707476
 20
741.051833
 10
-713.817073
 20
741.264276
 10
-717.895474
 20
741.395507
 10
-721.934611
 20
741.445967
 10
-725.932819
 20
741.417993
 10
-729.98981
 20
741.312533
 10
-734.073795
 20
741.127783
 10
-738.153653
 20
740.864256
 10
-742.230777
 20
740.52183
 10
-746.306679
 20
740.100258
 10
-750.382459
 20
739.598928
 10
-754.43009
 20
739.021027
 10
-757.711137
 20
738.488264
  0
LWPOLYLINE
  5
172
100
AcDbEntity
  8
025-DWG
  6
CONTINUOUS
100
AcDbPolyline
 90
       21
 70
   128
 43
0.0
 10
-759.589811
 20
731.774762
 10
-758.772069
 20
731.925746
 10
-754.749682
 20
732.589559
 10
-750.73806
 20
733.173114
 10
-746.753009
 20
733.674694
 10
-742.779949
 20
734.098034
 10
-738.775722
 20
734.447949
 10
-734.771541
 20
734.721041
 10
-730.765974
 20
734.917591
 10
-726.757558
 20
735.037775
 10
-722.744822
 20
735.081655
 10
-718.724862
 20
735.047424
 10
-714.790757
 20
734.937308
 10
-710.829982
 20
734.75119
 10
-706.842404
 20
734.488496
 10
-702.835255
 20
734.149006
 10
-698.816164
 20
733.732742
 10
-694.793153
 20
733.239989
 10
-690.774572
 20
732.671312
 10
-686.769041
 20
732.027561
 10
-685.303207
 20
731.763484
  0
LWPOLYLINE
  5
173
100
AcDbEntity
  8
025-DWG
  6
CONTINUOUS
100
AcDbPolyline
 90
       15
 70
   128
 43
0.0
 10
-770.181468
 20
737.136271
 10
-763.69645
 20
738.51476
 10
-757.136605
 20
739.698717
 10
-750.517581
 20
740.682606
 10
-743.855026
 20
741.460892
 10
-736.959443
 20
742.042961
 10
-730.029769
 20
742.402018
 10
-723.085728
 20
742.536611
 10
-716.147045
 20
742.445291
 10
-709.193694
 20
742.125862
 10
-702.262368
 20
741.580903
 10
-695.372496
 20
740.813601
 10
-688.416837
 20
739.80775
 10
-681.522525
 20
738.579694
 10
-674.707259
 20
737.136271
  0
LWPOLYLINE
  5
174
100
AcDbEntity
  8
025-DWG
  6
CONTINUOUS
100
AcDbPolyline
 90
       12
 70
   128
 43
0.0
 10
-687.140395
 20
738.499769
 10
-693.437867
 20
739.464169
 10
-699.784487
 20
740.242406
 10
-706.214005
 20
740.834125
 10
-712.672148
 20
741.230852
 10
-719.289667
 20
741.4326
 10
-725.913064
 20
741.42777
 10
-732.579896
 20
741.213704
 10
-739.227639
 20
740.791037
 10
-745.440914
 20
740.205761
 10
-751.619239
 20
739.440723
 10
-757.748331
 20
738.499769
  0
LWPOLYLINE
  5
175
100
AcDbEntity
  8
035-DWG
  6
CONTINUOUS
100
AcDbPolyline
 90
       12
 70
   128
 43
0.0
 10
-759.61203
 20
729.322017
 10
-751.551574
 20
730.587031
 10
-743.396822
 20
731.549882
 10
-735.183556
 20
732.201149
 10
-728.816017
 20
732.48604
 10
-722.430493
 20
732.580726
 10
-716.044995
 20
732.48521
 10
-709.677534
 20
732.199494
 10
-703.538687
 20
731.742523
 10
-697.432643
 20
731.111011
 10
-691.328095
 20
730.301606
 10
-685.276696
 20
729.322017
  0
LINE
  5
176
100
AcDbEntity
  8
025-DWG
  6
CONTINUOUS
100
AcDbLine
 10
-772.531619
 20
743.625599
 30
0.0
 11
-772.531619
 21
737.760899
 31
0.0
  0
LWPOLYLINE
  5
177
100
AcDbEntity
  8
025-DWG
  6
CONTINUOUS
100
AcDbPolyline
 90
        5
 70
   128
 43
0.0
 10
-773.262689
 20
737.300708
 10
-773.414816
 20
737.140125
 10
-773.563414
 20
736.850184
 10
-773.604908
 20
736.742586
 10
-773.645347
 20
736.624988
  0
LWPOLYLINE
  5
178
100
AcDbEntity
  8
025-DWG
  6
CONTINUOUS
100
AcDbPolyline
 90
        9
 70
   128
 43
0.0
 10
-772.597634
 20
735.783059
 10
-772.785286
 20
735.80527
 10
-772.968645
 20
735.857279
 10
-773.141046
 20
735.937194
 10
-773.296222
 20
736.042111
 10
-773.428534
 20
736.168216
 10
-773.53317
 20
736.310924
 10
-773.606327
 20
736.465049
 10
-773.645347
 20
736.624988
  0
LINE
  5
179
100
AcDbEntity
  8
025-DWG
  6
CONTINUOUS
100
AcDbLine
 10
-772.531619
 20
737.760899
 30
0.0
 11
-773.262689
 21
737.300708
 31
0.0
  0
LWPOLYLINE
  5
17A
100
AcDbEntity
  8
025-DWG
  6
CONTINUOUS
100
AcDbPolyline
 90
        5
 70
   128
 43
0.0
 10
-765.699616
 20
737.354191
 10
-765.96334
 20
736.887024
 10
-766.106692
 20
736.399319
 10
-766.142805
 20
736.111106
 10
-766.146623
 20
735.822891
  0
LWPOLYLINE
  5
17B
100
AcDbEntity
  8
025-DWG
  6
CONTINUOUS
100
AcDbPolyline
 90
        9
 70
   128
 43
0.0
 10
-766.146623
 20
735.822891
 10
-765.962552
 20
735.84965
 10
-765.787078
 20
735.904745
 10
-765.626298
 20
735.986261
 10
-765.485798
 20
736.091365
 10
-765.370459
 20
736.216407
 10
-765.28429
 20
736.357041
 10
-765.230284
 20
736.508381
 10
-765.210318
 20
736.665169
  0
LWPOLYLINE
  5
17C
100
AcDbEntity
  8
025-DWG
  6
CONTINUOUS
100
AcDbPolyline
 90
        6
 70
   128
 43
0.0
 10
-764.505939
 20
738.005371
 10
-765.318599
 20
737.8391
 10
-767.015714
 20
737.481109
 10
-768.706861
 20
737.10981
 10
-770.392201
 20
736.7252
 10
-772.070893
 20
736.327514
  0
LWPOLYLINE
  5
17D
100
AcDbEntity
  8
025-DWG
  6
CONTINUOUS
100
AcDbPolyline
 90
        8
 70
   128
 43
0.0
 10
-761.733378
 20
736.61393
 10
-761.735391
 20
736.601112
 10
-761.775434
 20
736.277271
 10
-761.816547
 20
735.847216
 10
-761.854016
 20
735.33025
 10
-761.885536
 20
734.732467
 10
-761.908505
 20
734.078524
 10
-761.916905
 20
733.633653
  0
LWPOLYLINE
  5
17E
100
AcDbEntity
  8
025-DWG
  6
CONTINUOUS
100
AcDbPolyline
 90
        9
 70
   128
 43
0.0
 10
-764.513681
 20
734.464951
 10
-764.498255
 20
734.637247
 10
-764.453189
 20
734.804354
 10
-764.379838
 20
734.96124
 10
-764.280414
 20
735.103179
 10
-764.157908
 20
735.225898
 10
-764.016012
 20
735.325701
 10
-763.858998
 20
735.399581
 10
-763.691595
 20
735.445314
  0
LWPOLYLINE
  5
17F
100
AcDbEntity
  8
025-DWG
  6
CONTINUOUS
100
AcDbPolyline
 90
        5
 70
   128
 43
0.0
 10
-763.655155
 20
735.396044
 10
-763.692182
 20
735.062521
 10
-763.721468
 20
734.488199
 10
-763.740525
 20
733.725806
 10
-763.745499
 20
733.291629
  0
LINE
  5
180
100
AcDbEntity
  8
025-DWG
  6
CONTINUOUS
100
AcDbLine
 10
-765.210318
 20
736.665169
 30
0.0
 11
-764.513681
 21
734.464951
 31
0.0
  0
LWPOLYLINE
  5
181
100
AcDbEntity
  8
025-DWG
  6
CONTINUOUS
100
AcDbPolyline
 90
        5
 70
   128
 43
0.0
 10
-761.8918
 20
733.309749
 10
-761.781868
 20
732.900398
 10
-761.57524
 20
732.510058
 10
-761.393961
 20
732.292032
 10
-761.245542
 20
732.165697
  0
LWPOLYLINE
  5
182
100
AcDbEntity
  8
025-DWG
  6
CONTINUOUS
100
AcDbPolyline
 90
        3
 70
   128
 43
0.0
 10
-761.911097
 20
733.633351
 10
-761.916844
 20
733.531099
 10
-761.886376
 20
733.307464
  0
LWPOLYLINE
  5
183
100
AcDbEntity
  8
025-DWG
  6
CONTINUOUS
100
AcDbPolyline
 90
        6
 70
   128
 43
0.0
 10
-764.513681
 20
734.464951
 10
-764.500372
 20
734.333355
 10
-764.488944
 20
734.042278
 10
-764.480462
 20
733.616508
 10
-764.476129
 20
733.103579
 10
-764.475733
 20
732.888047
  0
LINE
  5
184
100
AcDbEntity
  8
025-DWG
  6
CONTINUOUS
100
AcDbLine
 10
-764.475733
 20
732.888047
 30
0.0
 11
-763.72809
 21
732.888047
 31
0.0
  0
LWPOLYLINE
  5
185
100
AcDbEntity
  8
025-DWG
  6
CONTINUOUS
100
AcDbPolyline
 90
        5
 70
   128
 43
0.0
 10
-763.745499
 20
733.291629
 10
-763.745005
 20
733.191562
 10
-763.742009
 20
733.090947
 10
-763.7364
 20
732.989598
 10
-763.72809
 20
732.888047
  0
LWPOLYLINE
  5
186
100
AcDbEntity
  8
025-DWG
  6
CONTINUOUS
100
AcDbPolyline
 90
        9
 70
   128
 43
0.0
 10
-763.745499
 20
733.291629
 10
-763.336036
 20
733.308981
 10
-762.959708
 20
733.337604
 10
-762.628042
 20
733.37662
 10
-762.351198
 20
733.424836
 10
-762.137657
 20
733.480774
 10
-761.993959
 20
733.54272
 10
-761.924506
 20
733.608777
 10
-761.918133
 20
733.633693
  0
LWPOLYLINE
  5
187
100
AcDbEntity
  8
025-DWG
  6
CONTINUOUS
100
AcDbPolyline
 90
        9
 70
   128
 43
0.0
 10
-763.274262
 20
730.179813
 10
-762.925073
 20
730.635926
 10
-762.567681
 20
731.067957
 10
-762.220958
 20
731.453095
 10
-761.903209
 20
731.771005
 10
-761.631211
 20
732.004901
 10
-761.419326
 20
732.142435
 10
-761.278741
 20
732.176345
 10
-761.247573
 20
732.163002
  0
LWPOLYLINE
  5
188
100
AcDbEntity
  8
025-DWG
  6
CONTINUOUS
100
AcDbPolyline
 90
        5
 70
   128
 43
0.0
 10
-763.72809
 20
732.888047
 10
-763.645731
 20
731.891015
 10
-763.480474
 20
730.897973
 10
-763.389635
 20
730.536166
 10
-763.274262
 20
730.179813
  0
LWPOLYLINE
  5
189
100
AcDbEntity
  8
025-DWG
  6
CONTINUOUS
100
AcDbPolyline
 90
        9
 70
   128
 43
0.0
 10
-763.72809
 20
732.888047
 10
-763.311448
 20
732.965621
 10
-762.928667
 20
733.040686
 10
-762.592131
 20
733.110813
 10
-762.312728
 20
733.173733
 10
-762.099496
 20
733.227411
 10
-761.959333
 20
733.27011
 10
-761.896775
 20
733.300448
 10
-761.893576
 20
733.307553
  0
LINE
  5
18A
100
AcDbEntity
  8
025-DWG
  6
CONTINUOUS
100
AcDbLine
 10
-762.202254
 20
736.141831
 30
0.0
 11
-762.164899
 21
736.178924
 31
0.0
  0
LINE
  5
18B
100
AcDbEntity
  8
025-DWG
  6
CONTINUOUS
100
AcDbLine
 10
-763.503485
 20
735.482605
 30
0.0
 11
-763.691595
 21
735.445314
 31
0.0
  0
LINE
  5
18C
100
AcDbEntity
  8
025-DWG
  6
CONTINUOUS
100
AcDbLine
 10
-761.475014
 20
737.545678
 30
0.0
 11
-763.503485
 21
735.482605
 31
0.0
  0
LWPOLYLINE
  5
18D
100
AcDbEntity
  8
025-DWG
  6
CONTINUOUS
100
AcDbPolyline
 90
        5
 70
   128
 43
0.0
 10
-763.503485
 20
735.482605
 10
-763.083285
 20
735.592588
 10
-762.689539
 20
735.774416
 10
-762.33433
 20
736.022508
 10
-762.202254
 20
736.141831
  0
LWPOLYLINE
  5
18E
100
AcDbEntity
  8
025-DWG
  6
CONTINUOUS
100
AcDbPolyline
 90
        5
 70
   128
 43
0.0
 10
-763.655155
 20
735.396044
 10
-763.664522
 20
735.412925
 10
-763.673719
 20
735.42678
 10
-763.682755
 20
735.437599
 10
-763.691595
 20
735.445314
  0
LWPOLYLINE
  5
18F
100
AcDbEntity
  8
025-DWG
  6
CONTINUOUS
100
AcDbPolyline
 90
        5
 70
   128
 43
0.0
 10
-763.503485
 20
735.482605
 10
-763.54091
 20
735.465705
 10
-763.578664
 20
735.44562
 10
-763.616781
 20
735.422368
 10
-763.655155
 20
735.396044
  0
LWPOLYLINE
  5
190
100
AcDbEntity
  8
025-DWG
  6
CONTINUOUS
100
AcDbPolyline
 90
        6
 70
   128
 43
0.0
 10
-763.655155
 20
735.396044
 10
-763.218389
 20
735.489012
 10
-762.807869
 20
735.657653
 10
-762.437004
 20
735.896459
 10
-762.117908
 20
736.197629
 10
-761.997156
 20
736.346767
  0
LWPOLYLINE
  5
191
100
AcDbEntity
  8
025-DWG
  6
CONTINUOUS
100
AcDbPolyline
 90
        7
 70
   128
 43
0.0
 10
-765.210318
 20
736.665169
 10
-765.214533
 20
736.831797
 10
-765.201708
 20
736.999784
 10
-765.16973
 20
737.16956
 10
-765.114946
 20
737.340624
 10
-765.0723
 20
737.436285
 10
-765.018674
 20
737.532219
  0
LWPOLYLINE
  5
192
100
AcDbEntity
  8
025-DWG
  6
CONTINUOUS
100
AcDbPolyline
 90
        9
 70
   128
 43
0.0
 10
-765.699616
 20
737.354191
 10
-765.600183
 20
737.342105
 10
-765.502659
 20
737.340075
 10
-765.408193
 20
737.348126
 10
-765.317897
 20
737.366163
 10
-765.232834
 20
737.393973
 10
-765.154004
 20
737.431229
 10
-765.082337
 20
737.477493
 10
-765.018674
 20
737.532219
  0
LINE
  5
193
100
AcDbEntity
  8
025-DWG
  6
CONTINUOUS
100
AcDbLine
 10
-760.452806
 20
737.904847
 30
0.0
 11
-762.165111
 21
736.178709
 31
0.0
  0
LWPOLYLINE
  5
194
100
AcDbEntity
  8
025-DWG
  6
CONTINUOUS
100
AcDbPolyline
 90
        6
 70
   128
 43
0.0
 10
-764.505939
 20
738.005371
 10
-764.512538
 20
738.003482
 10
-764.823164
 20
737.896409
 10
-765.126029
 20
737.754975
 10
-765.421106
 20
737.574997
 10
-765.699616
 20
737.354191
  0
LINE
  5
195
100
AcDbEntity
  8
025-DWG
  6
CONTINUOUS
100
AcDbLine
 10
-763.691595
 20
735.445314
 30
0.0
 11
-764.505939
 21
738.005371
 31
0.0
  0
LWPOLYLINE
  5
196
100
AcDbEntity
  8
025-DWG
  6
CONTINUOUS
100
AcDbPolyline
 90
        6
 70
   128
 43
0.0
 10
-765.018674
 20
737.532219
 10
-764.905822
 20
737.688007
 10
-764.782009
 20
737.817315
 10
-764.648953
 20
737.922599
 10
-764.509284
 20
738.003755
 10
-764.505939
 20
738.005371
  0
LWPOLYLINE
  5
197
100
AcDbEntity
  8
025-DWG
  6
CONTINUOUS
100
AcDbPolyline
 90
        3
 70
   128
 43
0.0
 10
-761.475014
 20
737.545678
 10
-761.051231
 20
737.652853
 10
-760.68669
 20
737.81465
  0
LINE
  5
198
100
AcDbEntity
  8
025-DWG
  6
CONTINUOUS
100
AcDbLine
 10
-770.587469
 20
738.111202
 30
0.0
 11
-770.587469
 21
743.969688
 31
0.0
  0
LINE
  5
199
100
AcDbEntity
  8
025-DWG
  6
CONTINUOUS
100
AcDbLine
 10
-772.070893
 20
736.327514
 30
0.0
 11
-771.342957
 21
736.787028
 31
0.0
  0
LWPOLYLINE
  5
19A
100
AcDbEntity
  8
025-DWG
  6
CONTINUOUS
100
AcDbPolyline
 90
        5
 70
   128
 43
0.0
 10
-771.342957
 20
736.787028
 10
-771.15569
 20
736.868686
 10
-770.825503
 20
736.972716
 10
-770.382884
 20
737.088784
 10
-770.181468
 20
737.136271
  0
LWPOLYLINE
  5
19B
100
AcDbEntity
  8
025-DWG
  6
CONTINUOUS
100
AcDbPolyline
 90
        9
 70
   128
 43
0.0
 10
-770.587469
 20
738.111202
 10
-770.543147
 20
737.925903
 10
-770.493141
 20
737.747348
 10
-770.439273
 20
737.582033
 10
-770.383501
 20
737.435975
 10
-770.327856
 20
737.314489
 10
-770.274363
 20
737.221995
 10
-770.224967
 20
737.16186
 10
-770.181468
 20
737.136271
  0
LWPOLYLINE
  5
19C
100
AcDbEntity
  8
035-DWG
  6
CONTINUOUS
100
AcDbPolyline
 90
        7
 70
   128
 43
0.0
 10
-772.086439
 20
744.468735
 10
-772.012162
 20
744.515042
 10
-771.8651
 20
744.585206
 10
-771.635601
 20
744.670925
 10
-771.315332
 20
744.768587
 10
-770.915615
 20
744.873052
 10
-770.602863
 20
744.944993
  0
LWPOLYLINE
  5
19D
100
AcDbEntity
  8
025-DWG
  6
CONTINUOUS
100
AcDbPolyline
 90
        9
 70
   128
 43
0.0
 10
-770.587575
 20
744.945634
 10
-770.625472
 20
744.934336
 10
-770.653691
 20
744.883896
 10
-770.671088
 20
744.796359
 10
-770.676957
 20
744.675279
 10
-770.671059
 20
744.525567
 10
-770.653634
 20
744.353299
 10
-770.625388
 20
744.165466
 10
-770.587469
 20
743.969688
  0
LWPOLYLINE
  5
19E
100
AcDbEntity
  8
025-DWG
  6
CONTINUOUS
100
AcDbPolyline
 90
        9
 70
   128
 43
0.0
 10
-759.61203
 20
729.322017
 10
-759.688444
 20
729.819048
 10
-759.742804
 20
730.295615
 10
-759.77287
 20
730.732098
 10
-759.777405
 20
731.110527
 10
-759.756223
 20
731.415321
 10
-759.710195
 20
731.633931
 10
-759.641217
 20
731.757358
 10
-759.59122
 20
731.783251
  0
LINE
  5
19F
100
AcDbEntity
  8
025-DWG
  6
CONTINUOUS
100
AcDbLine
 10
-757.748331
 20
738.499769
 30
0.0
 11
-757.712549
 21
738.49614
 31
0.0
  0
LWPOLYLINE
  5
1A0
100
AcDbEntity
  8
025-DWG
  6
CONTINUOUS
100
AcDbPolyline
 90
        5
 70
   128
 43
0.0
 10
-761.246496
 20
732.167214
 10
-760.897148
 20
731.948705
 10
-760.455478
 20
731.797999
 10
-759.974175
 20
731.747561
 10
-759.593175
 20
731.792853
  0
LWPOLYLINE
  5
1A1
100
AcDbEntity
  8
035-DWG
  6
CONTINUOUS
100
AcDbPolyline
 90
        6
 70
   128
 43
0.0
 10
-763.274262
 20
730.179813
 10
-762.615979
 20
729.765333
 10
-761.876089
 20
729.462287
 10
-761.119788
 20
729.293249
 10
-760.325256
 20
729.249519
 10
-759.61203
 20
729.322017
  0
LWPOLYLINE
  5
1A2
100
AcDbEntity
  8
025-DWG
  6
CONTINUOUS
100
AcDbPolyline
 90
       10
 70
   128
 43
0.0
 10
-757.711015
 20
738.494991
 10
-758.020507
 20
738.443036
 10
-758.640681
 20
738.328161
 10
-759.21819
 20
738.210388
 10
-759.725203
 20
738.096336
 10
-760.149253
 20
737.990341
 10
-760.436764
 20
737.909903
 10
-760.617157
 20
737.853046
 10
-760.69421
 20
737.825463
 10
-760.690936
 20
737.827007
  0
LWPOLYLINE
  5
1A3
100
AcDbEntity
  8
025-DWG
  6
CONTINUOUS
100
AcDbPolyline
 90
        8
 70
   128
 43
0.0
 10
-757.748331
 20
738.499769
 10
-758.483703
 20
738.368838
 10
-759.176087
 20
738.231787
 10
-759.805186
 20
738.09299
 10
-760.355141
 20
737.956835
 10
-760.813227
 20
737.8267
 10
-761.162626
 20
737.707969
 10
-761.475014
 20
737.545678
  0
LWPOLYLINE
  5
1A4
100
AcDbEntity
  8
025-DWG
  6
CONTINUOUS
100
AcDbPolyline
 90
        3
 70
   128
 43
0.0
 10
-772.597634
 20
735.783059
 10
-769.164164
 20
736.596074
 10
-765.699616
 20
737.354191
  0
LWPOLYLINE
  5
1A5
100
AcDbEntity
  8
025-DWG
  6
CONTINUOUS
100
AcDbPolyline
 90
        5
 70
   128
 43
0.0
 10
-770.587469
 20
738.111202
 10
-771.376323
 20
737.994757
 10
-772.017633
 20
737.883385
 10
-772.437194
 20
737.790491
 10
-772.531619
 20
737.760899
  0
LWPOLYLINE
  5
1A6
100
AcDbEntity
  8
025-DWG
  6
CONTINUOUS
100
AcDbPolyline
 90
        9
 70
   128
 43
0.0
 10
-772.531619
 20
737.760899
 10
-772.502168
 20
737.54449
 10
-772.426978
 20
737.338514
 10
-772.309675
 20
737.152903
 10
-772.155913
 20
736.996603
 10
-771.973107
 20
736.877152
 10
-771.770069
 20
736.800308
 10
-771.556589
 20
736.769776
 10
-771.342957
 20
736.787028
  0
LWPOLYLINE
  5
1A7
100
AcDbEntity
  8
025-DWG
  6
CONTINUOUS
100
AcDbPolyline
 90
        9
 70
   128
 43
0.0
 10
-772.070893
 20
736.327514
 10
-772.284832
 20
736.309595
 10
-772.498757
 20
736.339628
 10
-772.702318
 20
736.416161
 10
-772.885664
 20
736.535492
 10
-773.039927
 20
736.691846
 10
-773.157641
 20
736.877658
 10
-773.233113
 20
737.083939
 10
-773.262689
 20
737.300708
  0
LWPOLYLINE
  5
1A8
100
AcDbEntity
  8
025-DWG
  6
CONTINUOUS
100
AcDbPolyline
 90
        6
 70
   128
 43
0.0
 10
-772.597634
 20
735.783059
 10
-772.488981
 20
735.945578
 10
-772.377184
 20
736.084865
 10
-772.261214
 20
736.200639
 10
-772.143406
 20
736.288564
 10
-772.070893
 20
736.327514
  0
LWPOLYLINE
  5
1A9
100
AcDbEntity
  8
025-DWG
  6
CONTINUOUS
100
AcDbPolyline
 90
        5
 70
   128
 43
0.0
 10
-772.531619
 20
743.625599
 10
-772.220745
 20
743.70587
 10
-771.670204
 20
743.80818
 10
-770.93761
 20
743.921229
 10
-770.587469
 20
743.969688
  0
LWPOLYLINE
  5
1AA
100
AcDbEntity
  8
025-DWG
  6
CONTINUOUS
100
AcDbPolyline
 90
        7
 70
   128
 43
0.0
 10
-772.087642
 20
744.470972
 10
-772.207104
 20
744.381406
 10
-772.322884
 20
744.259356
 10
-772.415611
 20
744.118317
 10
-772.482507
 20
743.962515
 10
-772.521566
 20
743.796619
 10
-772.531619
 20
743.625599
  0
LWPOLYLINE
  5
1AB
100
AcDbEntity
  8
025-DWG
  6
CONTINUOUS
100
AcDbPolyline
 90
        5
 70
   128
 43
0.0
 10
-679.189132
 20
737.354089
 10
-677.557322
 20
737.004734
 10
-675.931284
 20
736.642951
 10
-674.107006
 20
736.220679
 10
-672.290871
 20
735.782919
  0
LWPOLYLINE
  5
1AC
100
AcDbEntity
  8
025-DWG
  6
CONTINUOUS
100
AcDbPolyline
 90
        6
 70
   128
 43
0.0
 10
-672.817583
 20
736.327356
 10
-674.495091
 20
736.724765
 10
-676.179751
 20
737.109232
 10
-677.871724
 20
737.480726
 10
-679.570158
 20
737.839002
 10
-680.382818
 20
738.005275
  0
LWPOLYLINE
  5
1AD
100
AcDbEntity
  8
025-DWG
  6
CONTINUOUS
100
AcDbPolyline
 90
        5
 70
   128
 43
0.0
 10
-674.707259
 20
737.136271
 10
-674.230202
 20
737.018716
 10
-673.844256
 20
736.906462
 10
-673.594927
 20
736.813198
 10
-673.545769
 20
736.787028
  0
LWPOLYLINE
  5
1AE
100
AcDbEntity
  8
025-DWG
  6
CONTINUOUS
100
AcDbPolyline
 90
        9
 70
   128
 43
0.0
 10
-674.301257
 20
738.111202
 10
-674.345579
 20
737.925903
 10
-674.395585
 20
737.747348
 10
-674.449453
 20
737.582033
 10
-674.505225
 20
737.435975
 10
-674.56087
 20
737.314489
 10
-674.614363
 20
737.221995
 10
-674.663759
 20
737.16186
 10
-674.707259
 20
737.136271
  0
LWPOLYLINE
  5
1AF
100
AcDbEntity
  8
035-DWG
  6
CONTINUOUS
100
AcDbPolyline
 90
        7
 70
   128
 43
0.0
 10
-674.285956
 20
744.945112
 10
-674.180928
 20
744.922328
 10
-673.782229
 20
744.824971
 10
-673.428148
 20
744.726389
 10
-673.119096
 20
744.623326
 10
-672.933839
 20
744.544438
 10
-672.801451
 20
744.467971
  0
LWPOLYLINE
  5
1B0
100
AcDbEntity
  8
025-DWG
  6
CONTINUOUS
100
AcDbPolyline
 90
        5
 70
   128
 43
0.0
 10
-672.357107
 20
737.760899
 10
-672.667956
 20
737.84217
 10
-673.218344
 20
737.946224
 10
-673.95089
 20
738.061603
 10
-674.301257
 20
738.111202
  0
LWPOLYLINE
  5
1B1
100
AcDbEntity
  8
025-DWG
  6
CONTINUOUS
100
AcDbPolyline
 90
        5
 70
   128
 43
0.0
 10
-674.301257
 20
743.969688
 10
-673.51265
 20
743.855782
 10
-672.87151
 20
743.746504
 10
-672.451864
 20
743.654975
 10
-672.357107
 20
743.625599
  0
LINE
  5
1B2
100
AcDbEntity
  8
025-DWG
  6
CONTINUOUS
100
AcDbLine
 10
-673.545769
 20
736.787028
 30
0.0
 11
-672.817583
 21
736.327356
 31
0.0
  0
LWPOLYLINE
  5
1B3
100
AcDbEntity
  8
025-DWG
  6
CONTINUOUS
100
AcDbPolyline
 90
        9
 70
   128
 43
0.0
 10
-672.357107
 20
737.760899
 10
-672.386558
 20
737.54449
 10
-672.461748
 20
737.338514
 10
-672.579051
 20
737.152903
 10
-672.732813
 20
736.996603
 10
-672.915619
 20
736.877152
 10
-673.118657
 20
736.800308
 10
-673.332138
 20
736.769776
 10
-673.545769
 20
736.787028
  0
LINE
  5
1B4
100
AcDbEntity
  8
025-DWG
  6
CONTINUOUS
100
AcDbLine
 10
-672.357107
 20
737.760899
 30
0.0
 11
-672.357107
 21
743.625599
 31
0.0
  0
LWPOLYLINE
  5
1B5
100
AcDbEntity
  8
035-DWG
  6
CONTINUOUS
100
AcDbPolyline
 90
        3
 70
   128
 43
0.0
 10
-672.807894
 20
744.475238
 10
-666.681744
 20
740.578065
 10
-660.748063
 20
736.638491
  0
LWPOLYLINE
  5
1B6
100
AcDbEntity
  8
025-DWG
  6
CONTINUOUS
100
AcDbPolyline
 90
        3
 70
   128
 43
0.0
 10
-672.357107
 20
743.625599
 10
-666.284255
 20
739.762807
 10
-660.248812
 20
735.757167
  0
LWPOLYLINE
  5
1B7
100
AcDbEntity
  8
035-DWG
  6
CONTINUOUS
100
AcDbPolyline
 90
        4
 70
   128
 43
0.0
 10
-660.748174
 20
736.638379
 10
-660.434738
 20
736.332181
 10
-660.288024
 20
736.026776
 10
-660.248812
 20
735.757167
  0
LWPOLYLINE
  5
1B8
100
AcDbEntity
  8
025-DWG
  6
CONTINUOUS
100
AcDbPolyline
 90
        7
 70
   128
 43
0.0
 10
-671.243139
 20
736.624847
 10
-671.310291
 20
736.813165
 10
-671.380882
 20
736.975598
 10
-671.455584
 20
737.112066
 10
-671.532995
 20
737.218144
 10
-671.579106
 20
737.265078
 10
-671.625786
 20
737.30055
  0
LWPOLYLINE
  5
1B9
100
AcDbEntity
  8
025-DWG
  6
CONTINUOUS
100
AcDbPolyline
 90
        9
 70
   128
 43
0.0
 10
-671.243139
 20
736.624847
 10
-671.28216
 20
736.464906
 10
-671.355319
 20
736.31078
 10
-671.459958
 20
736.16807
 10
-671.592272
 20
736.041965
 10
-671.747451
 20
735.937049
 10
-671.919856
 20
735.857134
 10
-672.103217
 20
735.805128
 10
-672.290871
 20
735.782919
  0
LWPOLYLINE
  5
1BA
100
AcDbEntity
  8
025-DWG
  6
CONTINUOUS
100
AcDbPolyline
 90
        9
 70
   128
 43
0.0
 10
-671.625786
 20
737.30055
 10
-671.655362
 20
737.083781
 10
-671.730834
 20
736.8775
 10
-671.848548
 20
736.691687
 10
-672.002811
 20
736.535333
 10
-672.186158
 20
736.416003
 10
-672.389718
 20
736.339469
 10
-672.603643
 20
736.309436
 10
-672.817583
 20
736.327356
  0
LWPOLYLINE
  5
1BB
100
AcDbEntity
  8
025-DWG
  6
CONTINUOUS
100
AcDbPolyline
 90
        7
 70
   128
 43
0.0
 10
-672.817583
 20
736.327356
 10
-672.708067
 20
736.264035
 10
-672.598045
 20
736.174033
 10
-672.486703
 20
736.056416
 10
-672.376396
 20
735.913142
 10
-672.333437
 20
735.849886
 10
-672.290871
 20
735.782919
  0
LINE
  5
1BC
100
AcDbEntity
  8
025-DWG
  6
CONTINUOUS
100
AcDbLine
 10
-671.625786
 20
737.30055
 30
0.0
 11
-672.357107
 21
737.760899
 31
0.0
  0
LWPOLYLINE
  5
1BD
100
AcDbEntity
  8
025-DWG
  6
CONTINUOUS
100
AcDbPolyline
 90
        7
 70
   128
 43
0.0
 10
-672.800136
 20
744.470371
 10
-672.681622
 20
744.381406
 10
-672.565842
 20
744.259356
 10
-672.473115
 20
744.118317
 10
-672.40622
 20
743.962515
 10
-672.36716
 20
743.796619
 10
-672.357107
 20
743.625599
  0
LINE
  5
1BE
100
AcDbEntity
  8
025-DWG
  6
CONTINUOUS
100
AcDbLine
 10
-674.301257
 20
743.969688
 30
0.0
 11
-674.301257
 21
738.111202
 31
0.0
  0
LWPOLYLINE
  5
1BF
100
AcDbEntity
  8
025-DWG
  6
CONTINUOUS
100
AcDbPolyline
 90
        9
 70
   128
 43
0.0
 10
-674.301151
 20
744.945634
 10
-674.263254
 20
744.934336
 10
-674.235035
 20
744.883896
 10
-674.217638
 20
744.796359
 10
-674.211769
 20
744.675279
 10
-674.217667
 20
744.525567
 10
-674.235092
 20
744.353299
 10
-674.263338
 20
744.165466
 10
-674.301257
 20
743.969688
  0
LWPOLYLINE
  5
1C0
100
AcDbEntity
  8
025-DWG
  6
CONTINUOUS
100
AcDbPolyline
 90
       10
 70
   128
 43
0.0
 10
-684.196982
 20
737.826541
 10
-684.200407
 20
737.827751
 10
-684.279403
 20
737.855758
 10
-684.451571
 20
737.909857
 10
-684.724526
 20
737.986382
 10
-685.106451
 20
738.082713
 10
-685.579408
 20
738.190705
 10
-686.133204
 20
738.305619
 10
-686.741272
 20
738.42042
 10
-687.177608
 20
738.495169
  0
LWPOLYLINE
  5
1C1
100
AcDbEntity
  8
025-DWG
  6
CONTINUOUS
100
AcDbPolyline
 90
        5
 70
   128
 43
0.0
 10
-685.295965
 20
731.792752
 10
-684.919557
 20
731.747853
 10
-684.441375
 20
731.796228
 10
-683.994613
 20
731.947424
 10
-683.639803
 20
732.169325
  0
LWPOLYLINE
  5
1C2
100
AcDbEntity
  8
025-DWG
  6
CONTINUOUS
100
AcDbPolyline
 90
        8
 70
   128
 43
0.0
 10
-683.413712
 20
737.545678
 10
-683.557518
 20
737.636139
 10
-683.824299
 20
737.744132
 10
-684.207335
 20
737.866274
 10
-684.694207
 20
737.998412
 10
-685.276721
 20
738.137253
 10
-685.934609
 20
738.277348
 10
-687.140395
 20
738.499769
  0
LWPOLYLINE
  5
1C3
100
AcDbEntity
  8
025-DWG
  6
CONTINUOUS
100
AcDbPolyline
 90
        8
 70
   128
 43
0.0
 10
-682.971779
 20
733.633941
 10
-682.974853
 20
733.857422
 10
-682.994852
 20
734.528831
 10
-683.024615
 20
735.160616
 10
-683.06236
 20
735.725667
 10
-683.105979
 20
736.208907
 10
-683.150882
 20
736.583513
 10
-683.15566
 20
736.614244
  0
LWPOLYLINE
  5
1C4
100
AcDbEntity
  8
025-DWG
  6
CONTINUOUS
100
AcDbPolyline
 90
        6
 70
   128
 43
0.0
 10
-683.642973
 20
732.166521
 10
-683.529765
 20
732.258019
 10
-683.370562
 20
732.433492
 10
-683.194572
 20
732.707594
 10
-683.046039
 20
733.084121
 10
-683.008526
 20
733.309674
  0
LWPOLYLINE
  5
1C5
100
AcDbEntity
  8
025-DWG
  6
CONTINUOUS
100
AcDbPolyline
 90
        3
 70
   128
 43
0.0
 10
-683.002296
 20
733.307039
 10
-682.97361
 20
733.495857
 10
-682.977747
 20
733.632523
  0
LINE
  5
1C6
100
AcDbEntity
  8
025-DWG
  6
CONTINUOUS
100
AcDbLine
 10
-682.723615
 20
736.178709
 30
0.0
 11
-684.436053
 21
737.904981
 31
0.0
  0
LWPOLYLINE
  5
1C7
100
AcDbEntity
  8
025-DWG
  6
CONTINUOUS
100
AcDbPolyline
 90
        3
 70
   128
 43
0.0
 10
-684.211292
 20
737.819721
 10
-683.837495
 20
737.652853
 10
-683.413712
 20
737.545678
  0
LWPOLYLINE
  5
1C8
100
AcDbEntity
  8
025-DWG
  6
CONTINUOUS
100
AcDbPolyline
 90
        9
 70
   128
 43
0.0
 10
-685.299448
 20
731.783536
 10
-685.247509
 20
731.757358
 10
-685.178531
 20
731.633931
 10
-685.132503
 20
731.415321
 10
-685.111321
 20
731.110527
 10
-685.115856
 20
730.732098
 10
-685.145923
 20
730.295615
 10
-685.200282
 20
729.819048
 10
-685.276696
 20
729.322017
  0
LINE
  5
1C9
100
AcDbEntity
  8
025-DWG
  6
CONTINUOUS
100
AcDbLine
 10
-687.178092
 20
738.496522
 30
0.0
 11
-687.140395
 21
738.499769
 31
0.0
  0
LWPOLYLINE
  5
1CA
100
AcDbEntity
  8
025-DWG
  6
CONTINUOUS
100
AcDbPolyline
 90
        9
 70
   128
 43
0.0
 10
-680.375045
 20
734.464951
 10
-680.390471
 20
734.637247
 10
-680.435537
 20
734.804354
 10
-680.508888
 20
734.96124
 10
-680.608313
 20
735.103179
 10
-680.730818
 20
735.225898
 10
-680.872714
 20
735.325701
 10
-681.029728
 20
735.399581
 10
-681.197131
 20
735.445314
  0
LINE
  5
1CB
100
AcDbEntity
  8
025-DWG
  6
CONTINUOUS
100
AcDbLine
 10
-680.375045
 20
734.464951
 30
0.0
 11
-679.678439
 21
736.665071
 31
0.0
  0
LWPOLYLINE
  5
1CC
100
AcDbEntity
  8
025-DWG
  6
CONTINUOUS
100
AcDbPolyline
 90
        5
 70
   128
 43
0.0
 10
-681.143227
 20
733.291629
 10
-681.155905
 20
734.110557
 10
-681.180335
 20
734.793913
 10
-681.214559
 20
735.264838
 10
-681.233571
 20
735.396044
  0
LWPOLYLINE
  5
1CD
100
AcDbEntity
  8
025-DWG
  6
CONTINUOUS
100
AcDbPolyline
 90
        6
 70
   128
 43
0.0
 10
-680.412993
 20
732.888047
 10
-680.41065
 20
733.407608
 10
-680.403972
 20
733.86852
 10
-680.393529
 20
734.227112
 10
-680.380506
 20
734.433141
 10
-680.375045
 20
734.464951
  0
LWPOLYLINE
  5
1CE
100
AcDbEntity
  8
025-DWG
  6
CONTINUOUS
100
AcDbPolyline
 90
        5
 70
   128
 43
0.0
 10
-681.160636
 20
732.888047
 10
-681.152387
 20
732.988697
 10
-681.146778
 20
733.089516
 10
-681.143736
 20
733.190675
 10
-681.143227
 20
733.291629
  0
LINE
  5
1CF
100
AcDbEntity
  8
025-DWG
  6
CONTINUOUS
100
AcDbLine
 10
-680.412993
 20
732.888047
 30
0.0
 11
-681.160636
 21
732.888047
 31
0.0
  0
LWPOLYLINE
  5
1D0
100
AcDbEntity
  8
025-DWG
  6
CONTINUOUS
100
AcDbPolyline
 90
        5
 70
   128
 43
0.0
 10
-681.614464
 20
730.179813
 10
-681.377859
 20
731.040516
 10
-681.237287
 20
731.939636
 10
-681.191155
 20
732.41292
 10
-681.160636
 20
732.888047
  0
LWPOLYLINE
  5
1D1
100
AcDbEntity
  8
025-DWG
  6
CONTINUOUS
100
AcDbPolyline
 90
        5
 70
   128
 43
0.0
 10
-678.74213
 20
735.822792
 10
-678.790005
 20
736.440494
 10
-679.01075
 20
737.06948
 10
-679.092622
 20
737.212537
 10
-679.189132
 20
737.354089
  0
LWPOLYLINE
  5
1D2
100
AcDbEntity
  8
025-DWG
  6
CONTINUOUS
100
AcDbPolyline
 90
        9
 70
   128
 43
0.0
 10
-678.74213
 20
735.822792
 10
-678.926201
 20
735.849551
 10
-679.101676
 20
735.904645
 10
-679.262457
 20
735.986161
 10
-679.402958
 20
736.091265
 10
-679.518297
 20
736.216307
 10
-679.604467
 20
736.356942
 10
-679.658473
 20
736.508282
 10
-679.678439
 20
736.665071
  0
LINE
  5
1D3
100
AcDbEntity
  8
025-DWG
  6
CONTINUOUS
100
AcDbLine
 10
-681.197131
 20
735.445314
 30
0.0
 11
-681.385241
 21
735.482605
 31
0.0
  0
LWPOLYLINE
  5
1D4
100
AcDbEntity
  8
025-DWG
  6
CONTINUOUS
100
AcDbPolyline
 90
        9
 70
   128
 43
0.0
 10
-679.189132
 20
737.354089
 10
-679.288567
 20
737.342002
 10
-679.386091
 20
737.339972
 10
-679.480558
 20
737.348023
 10
-679.570855
 20
737.36606
 10
-679.65592
 20
737.39387
 10
-679.73475
 20
737.431127
 10
-679.806419
 20
737.477391
 10
-679.870082
 20
737.532119
  0
LWPOLYLINE
  5
1D5
100
AcDbEntity
  8
025-DWG
  6
CONTINUOUS
100
AcDbPolyline
 90
        7
 70
   128
 43
0.0
 10
-679.870082
 20
737.532119
 10
-679.78232
 20
737.361445
 10
-679.724506
 20
737.190695
 10
-679.689749
 20
737.019472
 10
-679.674738
 20
736.849057
 10
-679.674083
 20
736.756894
 10
-679.678439
 20
736.665071
  0
LWPOLYLINE
  5
1D6
100
AcDbEntity
  8
025-DWG
  6
CONTINUOUS
100
AcDbPolyline
 90
        5
 70
   128
 43
0.0
 10
-681.197131
 20
735.445314
 10
-681.205916
 20
735.437656
 10
-681.214917
 20
735.426902
 10
-681.224146
 20
735.413021
 10
-681.233571
 20
735.396044
  0
LWPOLYLINE
  5
1D7
100
AcDbEntity
  8
025-DWG
  6
CONTINUOUS
100
AcDbPolyline
 90
        5
 70
   128
 43
0.0
 10
-681.233571
 20
735.396044
 10
-681.27177
 20
735.422255
 10
-681.309783
 20
735.445461
 10
-681.347642
 20
735.465619
 10
-681.385241
 20
735.482605
  0
LINE
  5
1D8
100
AcDbEntity
  8
025-DWG
  6
CONTINUOUS
100
AcDbLine
 10
-680.382818
 20
738.005275
 30
0.0
 11
-681.197131
 21
735.445314
 31
0.0
  0
LWPOLYLINE
  5
1D9
100
AcDbEntity
  8
025-DWG
  6
CONTINUOUS
100
AcDbPolyline
 90
        6
 70
   128
 43
0.0
 10
-679.189132
 20
737.354089
 10
-679.458175
 20
737.568303
 10
-679.747356
 20
737.746615
 10
-680.055943
 20
737.892398
 10
-680.376218
 20
738.003386
 10
-680.382818
 20
738.005275
  0
LWPOLYLINE
  5
1DA
100
AcDbEntity
  8
025-DWG
  6
CONTINUOUS
100
AcDbPolyline
 90
        6
 70
   128
 43
0.0
 10
-680.382818
 20
738.005275
 10
-680.379472
 20
738.00366
 10
-680.241745
 20
737.923823
 10
-680.109789
 20
737.819976
 10
-679.984771
 20
737.690101
 10
-679.870082
 20
737.532119
  0
LWPOLYLINE
  5
1DB
100
AcDbEntity
  8
035-DWG
  6
CONTINUOUS
100
AcDbPolyline
 90
        6
 70
   128
 43
0.0
 10
-685.276696
 20
729.322017
 10
-684.46892
 20
729.247833
 10
-683.637965
 20
729.3133
 10
-682.852652
 20
729.51538
 10
-682.091531
 20
729.86398
 10
-681.614464
 20
730.179813
  0
LWPOLYLINE
  5
1DC
100
AcDbEntity
  8
025-DWG
  6
CONTINUOUS
100
AcDbPolyline
 90
        9
 70
   128
 43
0.0
 10
-682.970606
 20
733.633982
 10
-682.96422
 20
733.608777
 10
-682.894767
 20
733.54272
 10
-682.75107
 20
733.480774
 10
-682.537528
 20
733.424836
 10
-682.260684
 20
733.37662
 10
-681.929018
 20
733.337604
 10
-681.55269
 20
733.308981
 10
-681.143227
 20
733.291629
  0
LWPOLYLINE
  5
1DD
100
AcDbEntity
  8
025-DWG
  6
CONTINUOUS
100
AcDbPolyline
 90
        9
 70
   128
 43
0.0
 10
-683.641467
 20
732.162762
 10
-683.609985
 20
732.176345
 10
-683.4694
 20
732.142435
 10
-683.257515
 20
732.004901
 10
-682.985517
 20
731.771005
 10
-682.667768
 20
731.453095
 10
-682.321045
 20
731.067957
 10
-681.963653
 20
730.635926
 10
-681.614464
 20
730.179813
  0
LWPOLYLINE
  5
1DE
100
AcDbEntity
  8
025-DWG
  6
CONTINUOUS
100
AcDbPolyline
 90
        9
 70
   128
 43
0.0
 10
-682.995076
 20
733.307897
 10
-682.991951
 20
733.300448
 10
-682.929393
 20
733.27011
 10
-682.789231
 20
733.227411
 10
-682.575998
 20
733.173733
 10
-682.296595
 20
733.110813
 10
-681.960059
 20
733.040686
 10
-681.577278
 20
732.965621
 10
-681.160636
 20
732.888047
  0
LINE
  5
1DF
100
AcDbEntity
  8
025-DWG
  6
CONTINUOUS
100
AcDbLine
 10
-681.385241
 20
735.482605
 30
0.0
 11
-683.413712
 21
737.545678
 31
0.0
  0
LWPOLYLINE
  5
1E0
100
AcDbEntity
  8
025-DWG
  6
CONTINUOUS
100
AcDbPolyline
 90
        5
 70
   128
 43
0.0
 10
-682.723211
 20
736.178299
 10
-682.554396
 20
736.022508
 10
-682.199187
 20
735.774416
 10
-681.805441
 20
735.592588
 10
-681.385241
 20
735.482605
  0
LWPOLYLINE
  5
1E1
100
AcDbEntity
  8
025-DWG
  6
CONTINUOUS
100
AcDbPolyline
 90
        5
 70
   128
 43
0.0
 10
-682.632157
 20
736.052873
 10
-682.451722
 20
735.896459
 10
-682.080857
 20
735.657653
 10
-681.670337
 20
735.489012
 10
-681.233571
 20
735.396044
  0
LINE
  5
1E2
100
AcDbEntity
  8
035-DWG
100
AcDbLine
 10
-429.356764
 20
559.157484
 30
0.0
 11
-428.450043
 21
533.192383
 31
0.0
  0
ARC
  5
1E3
100
AcDbEntity
  8
035-DWG
100
AcDbCircle
 10
-441.676764
 20
511.157484
 30
0.0
 40
1.0
100
AcDbArc
 50
270.0
 51
0.0
  0
LINE
  5
1E4
100
AcDbEntity
  8
025-DWG
100
AcDbLine
 10
-440.676764
 20
530.157484
 30
0.0
 11
-443.541975
 21
530.157484
 31
0.0
  0
ARC
  5
1E5
100
AcDbEntity
  8
035-DWG
100
AcDbCircle
 10
-438.676764
 20
514.657484
 30
0.0
 40
2.5
100
AcDbArc
 50
143.130102
 51
216.869898
  0
LINE
  5
1E6
100
AcDbEntity
  8
035-DWG
100
AcDbLine
 10
-440.676764
 20
511.157484
 30
0.0
 11
-440.676764
 21
513.157484
 31
0.0
  0
LINE
  5
1E7
100
AcDbEntity
  8
035-DWG
100
AcDbLine
 10
-440.676764
 20
516.157484
 30
0.0
 11
-440.676764
 21
530.157484
 31
0.0
  0
LINE
  5
1E8
100
AcDbEntity
  8
035-DWG
100
AcDbLine
 10
-438.676764
 20
532.157484
 30
0.0
 11
-429.449434
 21
532.157484
 31
0.0
  0
ARC
  5
1E9
100
AcDbEntity
  8
035-DWG
100
AcDbCircle
 10
-429.449434
 20
533.157484
 30
0.0
 40
1.0
100
AcDbArc
 50
270.0
 51
2.0
  0
ARC
  5
1EA
100
AcDbEntity
  8
035-DWG
100
AcDbCircle
 10
-438.676764
 20
530.157484
 30
0.0
 40
2.0
100
AcDbArc
 50
90.0
 51
180.0
  0
LINE
  5
1EB
100
AcDbEntity
  8
035-DWG
100
AcDbLine
 10
-438.019994
 20
583.761048
 30
0.0
 11
-441.452504
 21
591.12209
 31
0.0
  0
LINE
  5
1EC
100
AcDbEntity
  8
025-DWG
100
AcDbLine
 10
-439.523444
 20
570.757484
 30
0.0
 11
-439.523444
 21
561.457484
 31
0.0
  0
ARC
  5
1ED
100
AcDbEntity
  8
035-DWG
100
AcDbCircle
 10
-439.723444
 20
570.757484
 30
0.0
 40
0.2
100
AcDbArc
 50
360.0
 51
90.0
  0
LINE
  5
1EE
100
AcDbEntity
  8
025-DWG
100
AcDbLine
 10
-441.682397
 20
570.757484
 30
0.0
 11
-441.682397
 21
561.457484
 31
0.0
  0
ARC
  5
1EF
100
AcDbEntity
  8
035-DWG
100
AcDbCircle
 10
-441.882397
 20
570.757484
 30
0.0
 40
0.2
100
AcDbArc
 50
360.0
 51
90.0
  0
LINE
  5
1F0
100
AcDbEntity
  8
035-DWG
100
AcDbLine
 10
-431.376764
 20
559.157484
 30
0.0
 11
-431.376764
 21
559.457484
 31
0.0
  0
LINE
  5
1F1
100
AcDbEntity
  8
025-DWG
100
AcDbLine
 10
-437.508844
 20
570.757484
 30
0.0
 11
-437.508844
 21
561.457484
 31
0.0
  0
LINE
  5
1F2
100
AcDbEntity
  8
025-DWG
100
AcDbLine
 10
-437.508844
 20
561.457484
 30
0.0
 11
-438.107827
 21
570.957484
 31
0.0
  0
LINE
  5
1F3
100
AcDbEntity
  8
025-DWG
100
AcDbLine
 10
-434.037012
 20
570.557484
 30
0.0
 11
-434.037012
 21
561.457484
 31
0.0
  0
LINE
  5
1F4
100
AcDbEntity
  8
025-DWG
100
AcDbLine
 10
-435.670369
 20
570.557484
 30
0.0
 11
-435.670369
 21
561.457484
 31
0.0
  0
LINE
  5
1F5
100
AcDbEntity
  8
025-DWG
100
AcDbLine
 10
-434.037012
 20
561.457484
 30
0.0
 11
-434.729918
 21
570.957484
 31
0.0
  0
LINE
  5
1F6
100
AcDbEntity
  8
025-DWG
100
AcDbLine
 10
-432.634533
 20
570.957484
 30
0.0
 11
-432.634533
 21
561.457484
 31
0.0
  0
LINE
  5
1F7
100
AcDbEntity
  8
035-DWG
100
AcDbLine
 10
-429.376764
 20
561.457484
 30
0.0
 11
-429.683235
 21
570.233659
 31
0.0
  0
LINE
  5
1F8
100
AcDbEntity
  8
025-DWG
100
AcDbLine
 10
-431.48505
 20
570.457484
 30
0.0
 11
-431.48505
 21
561.457484
 31
0.0
  0
LINE
  5
1F9
100
AcDbEntity
  8
025-DWG
100
AcDbLine
 10
-431.48505
 20
561.457484
 30
0.0
 11
-432.227227
 21
570.957484
 31
0.0
  0
LINE
  5
1FA
100
AcDbEntity
  8
025-DWG
100
AcDbLine
 10
-430.013306
 20
570.82921
 30
0.0
 11
-430.013306
 21
561.457484
 31
0.0
  0
LINE
  5
1FB
100
AcDbEntity
  8
025-DWG
100
AcDbLine
 10
-430.60669
 20
570.946809
 30
0.0
 11
-430.60669
 21
561.457484
 31
0.0
  0
LINE
  5
1FC
100
AcDbEntity
  8
025-DWG
100
AcDbLine
 10
-434.037012
 20
561.457484
 30
0.0
 11
-435.670369
 21
561.457484
 31
0.0
  0
LINE
  5
1FD
100
AcDbEntity
  8
035-DWG
100
AcDbLine
 10
-429.376764
 20
561.457484
 30
0.0
 11
-429.376764
 21
559.457484
 31
0.0
  0
LINE
  5
1FE
100
AcDbEntity
  8
025-DWG
100
AcDbLine
 10
-430.013306
 20
561.457484
 30
0.0
 11
-430.60669
 21
561.457484
 31
0.0
  0
LINE
  5
1FF
100
AcDbEntity
  8
025-DWG
100
AcDbLine
 10
-431.48505
 20
561.457484
 30
0.0
 11
-432.634533
 21
561.457484
 31
0.0
  0
LINE
  5
200
100
AcDbEntity
  8
035-DWG
100
AcDbLine
 10
-430.732778
 20
570.957484
 30
0.0
 11
-430.733235
 21
570.957484
 31
0.0
  0
ARC
  5
201
100
AcDbEntity
  8
035-DWG
100
AcDbCircle
 10
-430.432778
 20
570.207484
 30
0.0
 40
0.75
100
AcDbArc
 50
2.0
 51
90.0
  0
ARC
  5
202
100
AcDbEntity
  8
035-DWG
100
AcDbCircle
 10
-434.437012
 20
570.557484
 30
0.0
 40
0.4
100
AcDbArc
 50
360.0
 51
90.0
  0
ARC
  5
203
100
AcDbEntity
  8
035-DWG
100
AcDbCircle
 10
-431.98505
 20
570.457484
 30
0.0
 40
0.5
100
AcDbArc
 50
0.0
 51
90.0
  0
ARC
  5
204
100
AcDbEntity
  8
035-DWG
100
AcDbCircle
 10
-437.708844
 20
570.757484
 30
0.0
 40
0.2
100
AcDbArc
 50
0.0
 51
90.0
  0
ARC
  5
205
100
AcDbEntity
  8
035-DWG
100
AcDbCircle
 10
-436.070369
 20
570.557484
 30
0.0
 40
0.4
100
AcDbArc
 50
0.0
 51
90.0
  0
LINE
  5
206
100
AcDbEntity
  8
025-DWG
100
AcDbLine
 10
-437.508844
 20
561.457484
 30
0.0
 11
-439.523444
 21
561.457484
 31
0.0
  0
ARC
  5
207
100
AcDbEntity
  8
035-DWG
100
AcDbCircle
 10
-439.647381
 20
591.983213
 30
0.0
 40
2.0
100
AcDbArc
 50
103.445522
 51
205.503184
  0
ARC
  5
208
100
AcDbEntity
  8
025-DWG
100
AcDbCircle
 10
-436.799495
 20
569.655542
 30
0.0
 40
24.8
100
AcDbArc
 50
97.94316
 51
106.429283
  0
ARC
  5
209
100
AcDbEntity
  8
035-DWG
100
AcDbCircle
 10
-436.799495
 20
569.655542
 30
0.0
 40
24.5
100
AcDbArc
 50
97.94316
 51
106.429283
  0
LINE
  5
20A
100
AcDbEntity
  8
025-DWG
100
AcDbLine
 10
-439.532608
 20
594.293251
 30
0.0
 11
-440.217615
 21
594.218721
 31
0.0
  0
LINE
  5
20B
100
AcDbEntity
  8
035-DWG
100
AcDbLine
 10
-440.737928
 20
597.882103
 30
0.0
 11
-440.617818
 21
597.897013
 31
0.0
  0
ARC
  5
20C
100
AcDbEntity
  8
035-DWG
100
AcDbCircle
 10
-437.829971
 20
617.858291
 30
0.0
 40
20.0
100
AcDbArc
 50
300.073334
 51
352.125425
  0
ARC
  5
20D
100
AcDbEntity
  8
025-DWG
100
AcDbCircle
 10
-435.256489
 20
618.635868
 30
0.0
 40
23.7
100
AcDbArc
 50
343.105811
 51
353.403307
  0
ARC
  5
20E
100
AcDbEntity
  8
035-DWG
100
AcDbCircle
 10
-435.256489
 20
619.11177
 30
0.0
 40
20.0
100
AcDbArc
 50
281.59778
 51
348.209256
  0
LINE
  5
20F
100
AcDbEntity
  8
025-DWG
100
AcDbLine
 10
-432.467739
 20
595.061919
 30
0.0
 11
-437.91238
 21
594.469534
 31
0.0
  0
LINE
  5
210
100
AcDbEntity
  8
035-DWG
100
AcDbLine
 10
-438.143403
 20
598.102438
 30
0.0
 11
-431.23569
 21
599.520109
 31
0.0
  0
ARC
  5
211
100
AcDbEntity
  8
025-DWG
100
AcDbCircle
 10
-435.256489
 20
618.635868
 30
0.0
 40
23.7
100
AcDbArc
 50
281.59778
 51
325.243593
  0
ARC
  5
212
100
AcDbEntity
  8
035-DWG
100
AcDbCircle
 10
-413.124062
 20
614.096501
 30
0.0
 40
5.0
100
AcDbArc
 50
77.583577
 51
168.209256
  0
LINE
  5
213
100
AcDbEntity
  8
035-DWG
100
AcDbLine
 10
-407.790199
 20
618.463945
 30
0.0
 11
-407.009104
 21
618.291975
 31
0.0
  0
ARC
  5
214
100
AcDbEntity
  8
035-DWG
100
AcDbCircle
 10
-407.116612
 20
617.80367
 30
0.0
 40
0.5
100
AcDbArc
 50
344.810118
 51
77.583577
  0
LINE
  5
215
100
AcDbEntity
  8
035-DWG
100
AcDbLine
 10
-409.708902
 20
618.886376
 30
0.0
 11
-407.790199
 21
618.463945
 31
0.0
  0
ARC
  5
216
100
AcDbEntity
  8
035-DWG
100
AcDbCircle
 10
-435.256489
 20
618.635868
 30
0.0
 40
24.0
100
AcDbArc
 50
281.59778
 51
353.403307
  0
ARC
  5
217
100
AcDbEntity
  8
035-DWG
100
AcDbCircle
 10
-437.033558
 20
625.926252
 30
0.0
 40
31.5
100
AcDbArc
 50
278.393845
 51
344.810118
  0
ARC
  5
218
100
AcDbEntity
  8
035-DWG
100
AcDbCircle
 10
-410.783979
 20
614.003322
 30
0.0
 40
5.0
100
AcDbArc
 50
77.583577
 51
168.209256
  0
ARC
  5
219
100
AcDbEntity
  8
025-DWG
100
AcDbCircle
 10
-408.435245
 20
615.534113
 30
0.0
 40
3.3
100
AcDbArc
 50
102.203554
 51
173.403307
  0
ARC
  5
21A
100
AcDbEntity
  8
035-DWG
100
AcDbCircle
 10
-408.435245
 20
615.534113
 30
0.0
 40
3.0
100
AcDbArc
 50
77.583577
 51
173.403307
  0
LINE
  5
21B
100
AcDbEntity
  8
035-DWG
100
AcDbLine
 10
-432.43529
 20
594.763679
 30
0.0
 11
-440.185166
 21
593.920481
 31
0.0
  0
ARC
  5
21C
100
AcDbEntity
  8
035-DWG
100
AcDbCircle
 10
-531.494363
 20
1000.669091
 30
0.0
 40
2.0
100
AcDbArc
 50
0.0
 51
90.0
  0
LINE
  5
21D
100
AcDbEntity
  8
025-DWG
100
AcDbLine
 10
-540.144363
 20
975.355427
 30
0.0
 11
-708.002808
 21
975.355427
 31
0.0
  0
LINE
  5
21E
100
AcDbEntity
  8
025-DWG
100
AcDbLine
 10
-540.144363
 20
970.355427
 30
0.0
 11
-673.64346
 21
970.355427
 31
0.0
  0
LWPOLYLINE
  5
21F
100
AcDbEntity
  8
025-DWG
  6
CONTINUOUS
100
AcDbPolyline
 90
       16
 70
   128
 43
0.0
 10
-702.632623
 20
929.463734
 10
-702.522326
 20
930.529264
 10
-702.194517
 20
931.548361
 10
-701.66354
 20
932.47644
 10
-700.952623
 20
933.272896
 10
-700.09287
 20
933.902883
 10
-699.121896
 20
934.338841
 10
-698.082181
 20
934.561694
 10
-697.019213
 20
934.561694
 10
-695.979498
 20
934.338841
 10
-695.008523
 20
933.902883
 10
-694.148771
 20
933.272896
 10
-693.437854
 20
932.47644
 10
-692.906876
 20
931.548361
 10
-692.579068
 20
930.529264
 10
-692.468771
 20
929.463734
  0
LWPOLYLINE
  5
220
100
AcDbEntity
  8
025-DWG
  6
CONTINUOUS
100
AcDbPolyline
 90
       17
 70
   128
 43
0.0
 10
-691.730683
 20
929.467956
 10
-691.841812
 20
930.605125
 10
-692.170928
 20
931.698592
 10
-692.705383
 20
932.706338
 10
-693.424639
 20
933.589634
 10
-694.301055
 20
934.314536
 10
-695.30095
 20
934.853188
 10
-696.3859
 20
935.184887
 10
-697.51421
 20
935.296889
 10
-698.64252
 20
935.184887
 10
-699.727469
 20
934.853188
 10
-700.727365
 20
934.314536
 10
-701.60378
 20
933.589634
 10
-702.323036
 20
932.706338
 10
-702.857491
 20
931.698592
 10
-703.186607
 20
930.605125
 10
-703.297736
 20
929.467956
  0
LWPOLYLINE
  5
221
100
AcDbEntity
  8
025-DWG
  6
CONTINUOUS
100
AcDbPolyline
 90
       20
 70
   128
 43
0.0
 10
-704.798711
 20
929.467956
 10
-704.718931
 20
930.586193
 10
-704.482572
 20
931.681904
 10
-704.003737
 20
932.9199
 10
-703.324133
 20
934.059145
 10
-702.468868
 20
935.054339
 10
-701.458107
 20
935.888815
 10
-700.3424
 20
936.522371
 10
-699.136689
 20
936.955677
 10
-697.902741
 20
937.168907
 10
-696.651894
 20
937.16966
 10
-695.435277
 20
936.958638
 10
-694.271286
 20
936.546872
 10
-693.189419
 20
935.942157
 10
-692.220963
 20
935.166412
 10
-691.37978
 20
934.223549
 10
-690.702185
 20
933.154284
 10
-690.198186
 20
931.960837
 10
-689.894043
 20
930.699703
 10
-689.798692
 20
929.467956
  0
LWPOLYLINE
  5
222
100
AcDbEntity
  8
025-DWG
  6
CONTINUOUS
100
AcDbPolyline
 90
       20
 70
   128
 43
0.0
 10
-689.019972
 20
929.472417
 10
-689.139727
 20
930.89925
 10
-689.491322
 20
932.28615
 10
-690.069077
 20
933.593451
 10
-690.854873
 20
934.784349
 10
-691.827591
 20
935.819223
 10
-692.960038
 20
936.672659
 10
-694.203872
 20
937.307775
 10
-695.537198
 20
937.721248
 10
-696.902068
 20
937.895707
 10
-698.277781
 20
937.83675
 10
-699.614783
 20
937.545873
 10
-700.886315
 20
937.035698
 10
-702.060146
 20
936.31553
 10
-703.100809
 20
935.410977
 10
-703.988607
 20
934.331254
 10
-704.688117
 20
933.119684
 10
-705.184151
 20
931.788389
 10
-705.45467
 20
930.393156
 10
-705.504666
 20
929.472417
  0
LWPOLYLINE
  5
223
100
AcDbEntity
  8
025-DWG
  6
CONTINUOUS
100
AcDbPolyline
 90
        3
 70
   128
 43
0.0
 10
-692.35927
 20
920.521603
 10
-697.550609
 20
920.030941
 10
-702.75273
 20
919.655463
  0
LWPOLYLINE
  5
224
100
AcDbEntity
  8
025-DWG
  6
CONTINUOUS
100
AcDbPolyline
 90
        3
 70
   128
 43
0.0
 10
-702.795629
 20
918.673996
 10
-700.81523
 20
918.803405
 10
-692.358842
 20
919.544639
  0
LWPOLYLINE
  5
225
100
AcDbEntity
  8
025-DWG
  6
CONTINUOUS
100
AcDbPolyline
 90
       15
 70
   128
 43
0.0
 10
-674.301257
 20
963.680293
 10
-680.871463
 20
965.07008
 10
-687.517149
 20
966.262651
 10
-694.222432
 20
967.252454
 10
-700.971429
 20
968.033934
 10
-707.956118
 20
968.616446
 10
-714.974918
 20
968.97308
 10
-722.007857
 20
969.102414
 10
-729.034963
 20
969.003026
 10
-736.007574
 20
968.677058
 10
-742.958029
 20
968.127235
 10
-749.867243
 20
967.356693
 10
-756.840567
 20
966.34955
 10
-763.753113
 20
965.121859
 10
-770.587469
 20
963.680293
  0
LWPOLYLINE
  5
226
100
AcDbEntity
  8
025-DWG
  6
CONTINUOUS
100
AcDbPolyline
 90
       15
 70
   128
 43
0.0
 10
-770.587469
 20
969.538779
 10
-763.933552
 20
970.912771
 10
-757.204161
 20
972.08906
 10
-750.415427
 20
973.062111
 10
-743.583481
 20
973.826392
 10
-736.513928
 20
974.390754
 10
-729.410992
 20
974.728817
 10
-722.294877
 20
974.839256
 10
-715.185789
 20
974.720747
 10
-708.324393
 20
974.388001
 10
-701.484971
 20
973.843304
 10
-694.685264
 20
973.089619
 10
-687.827368
 20
972.112503
 10
-681.027299
 20
970.926838
 10
-674.301257
 20
969.538779
  0
LWPOLYLINE
  5
227
100
AcDbEntity
  8
035-DWG
  6
CONTINUOUS
100
AcDbPolyline
 90
       15
 70
   128
 43
0.0
 10
-674.301151
 20
970.514725
 10
-680.955076
 20
971.893964
 10
-687.684476
 20
973.074745
 10
-694.47322
 20
974.051512
 10
-701.305174
 20
974.818712
 10
-708.374737
 20
975.385231
 10
-715.477683
 20
975.724586
 10
-722.593808
 20
975.835447
 10
-729.702905
 20
975.716488
 10
-736.564324
 20
975.382472
 10
-743.403769
 20
974.835694
 10
-750.203499
 20
974.079131
 10
-757.061418
 20
973.098282
 10
-763.861511
 20
971.908087
 10
-770.587575
 20
970.514725
  0
LWPOLYLINE
  5
228
100
AcDbEntity
  8
035-DWG
  6
CONTINUOUS
100
AcDbPolyline
 90
       12
 70
   128
 43
0.0
 10
-759.61203
 20
954.891109
 10
-751.551574
 20
956.156122
 10
-743.396822
 20
957.118973
 10
-735.183556
 20
957.77024
 10
-728.816017
 20
958.055131
 10
-722.430493
 20
958.149817
 10
-716.044995
 20
958.054301
 10
-709.677534
 20
957.768586
 10
-703.538687
 20
957.311614
 10
-697.432643
 20
956.680102
 10
-691.328095
 20
955.870697
 10
-685.276696
 20
954.891109
  0
LWPOLYLINE
  5
229
100
AcDbEntity
  8
025-DWG
  6
CONTINUOUS
100
AcDbPolyline
 90
       12
 70
   128
 43
0.0
 10
-687.140395
 20
964.068861
 10
-693.437867
 20
965.03326
 10
-699.784487
 20
965.811497
 10
-706.214005
 20
966.403216
 10
-712.672148
 20
966.799943
 10
-719.289667
 20
967.001691
 10
-725.913064
 20
966.996861
 10
-732.579896
 20
966.782795
 10
-739.227639
 20
966.360128
 10
-745.440914
 20
965.774852
 10
-751.619239
 20
965.009814
 10
-757.748331
 20
964.068861
  0
LWPOLYLINE
  5
22A
100
AcDbEntity
  8
025-DWG
  6
CONTINUOUS
100
AcDbPolyline
 90
       15
 70
   128
 43
0.0
 10
-770.181468
 20
962.705362
 10
-763.69645
 20
964.083851
 10
-757.136605
 20
965.267808
 10
-750.517581
 20
966.251697
 10
-743.855026
 20
967.029984
 10
-736.959443
 20
967.612052
 10
-730.029769
 20
967.971109
 10
-723.085728
 20
968.105702
 10
-716.147045
 20
968.014382
 10
-709.193694
 20
967.694954
 10
-702.262368
 20
967.149995
 10
-695.372496
 20
966.382692
 10
-688.416837
 20
965.376842
 10
-681.522525
 20
964.148785
 10
-674.707259
 20
962.705362
  0
LWPOLYLINE
  5
22B
100
AcDbEntity
  8
025-DWG
  6
CONTINUOUS
100
AcDbPolyline
 90
       21
 70
   128
 43
0.0
 10
-759.589811
 20
957.343853
 10
-758.772069
 20
957.494837
 10
-754.749682
 20
958.158651
 10
-750.73806
 20
958.742205
 10
-746.753009
 20
959.243786
 10
-742.779949
 20
959.667125
 10
-738.775722
 20
960.01704
 10
-734.771541
 20
960.290132
 10
-730.765974
 20
960.486682
 10
-726.757558
 20
960.606866
 10
-722.744822
 20
960.650746
 10
-718.724862
 20
960.616516
 10
-714.790757
 20
960.506399
 10
-710.829982
 20
960.320281
 10
-706.842404
 20
960.057587
 10
-702.835255
 20
959.718097
 10
-698.816164
 20
959.301833
 10
-694.793153
 20
958.80908
 10
-690.774572
 20
958.240403
 10
-686.769041
 20
957.596652
 10
-685.303207
 20
957.332575
  0
LWPOLYLINE
  5
22C
100
AcDbEntity
  8
025-DWG
  6
CONTINUOUS
100
AcDbPolyline
 90
       19
 70
   128
 43
0.0
 10
-687.183029
 20
964.04089
 10
-689.005728
 20
964.347614
 10
-693.134539
 20
964.961316
 10
-697.279282
 20
965.496626
 10
-701.4294
 20
965.952193
 10
-705.575252
 20
966.327137
 10
-709.707476
 20
966.620925
 10
-713.817073
 20
966.833367
 10
-717.895474
 20
966.964598
 10
-721.934611
 20
967.015059
 10
-725.932819
 20
966.987084
 10
-729.98981
 20
966.881625
 10
-734.073795
 20
966.696874
 10
-738.153653
 20
966.433348
 10
-742.230777
 20
966.090921
 10
-746.306679
 20
965.66935
 10
-750.382459
 20
965.16802
 10
-754.43009
 20
964.590118
 10
-757.711137
 20
964.057355
  0
LWPOLYLINE
  5
22D
100
AcDbEntity
  8
025-DWG
  6
CONTINUOUS
100
AcDbPolyline
 90
        5
 70
   128
 43
0.0
 10
-763.72809
 20
958.457138
 10
-763.645731
 20
957.460106
 10
-763.480474
 20
956.467064
 10
-763.389635
 20
956.105257
 10
-763.274262
 20
955.748904
  0
LWPOLYLINE
  5
22E
100
AcDbEntity
  8
025-DWG
  6
CONTINUOUS
100
AcDbPolyline
 90
        9
 70
   128
 43
0.0
 10
-763.274262
 20
955.748904
 10
-762.925073
 20
956.205017
 10
-762.567681
 20
956.637048
 10
-762.220958
 20
957.022186
 10
-761.903209
 20
957.340096
 10
-761.631211
 20
957.573992
 10
-761.419326
 20
957.711526
 10
-761.278741
 20
957.745436
 10
-761.247573
 20
957.732094
  0
LWPOLYLINE
  5
22F
100
AcDbEntity
  8
025-DWG
  6
CONTINUOUS
100
AcDbPolyline
 90
        9
 70
   128
 43
0.0
 10
-759.61203
 20
954.891109
 10
-759.688444
 20
955.388139
 10
-759.742804
 20
955.864706
 10
-759.77287
 20
956.301189
 10
-759.777405
 20
956.679618
 10
-759.756223
 20
956.984412
 10
-759.710195
 20
957.203023
 10
-759.641217
 20
957.32645
 10
-759.59122
 20
957.352342
  0
LINE
  5
230
100
AcDbEntity
  8
025-DWG
  6
CONTINUOUS
100
AcDbLine
 10
-764.475733
 20
958.457138
 30
0.0
 11
-764.475733
 21
944.460352
 31
0.0
  0
LWPOLYLINE
  5
231
100
AcDbEntity
  8
025-DWG
  6
CONTINUOUS
100
AcDbPolyline
 90
        3
 70
   128
 43
0.0
 10
-764.475733
 20
944.460352
 10
-764.843024
 20
953.347373
 10
-765.210318
 20
962.234261
  0
LWPOLYLINE
  5
232
100
AcDbEntity
  8
025-DWG
  6
CONTINUOUS
100
AcDbPolyline
 90
        4
 70
   128
 43
0.0
 10
-766.146623
 20
961.391982
 10
-766.102445
 20
960.321842
 10
-765.925733
 20
956.041261
 10
-765.412895
 20
943.618028
  0
LWPOLYLINE
  5
233
100
AcDbEntity
  8
025-DWG
  6
CONTINUOUS
100
AcDbPolyline
 90
        6
 70
   128
 43
0.0
 10
-739.257274
 20
918.928966
 10
-731.582376
 20
918.594292
 10
-722.730988
 20
918.454228
 10
-718.173045
 20
918.484727
 10
-713.618253
 20
918.584882
 10
-705.631452
 20
918.928966
  0
LWPOLYLINE
  5
234
100
AcDbEntity
  8
025-DWG
  6
CONTINUOUS
100
AcDbPolyline
 90
        6
 70
   128
 43
0.0
 10
-705.61824
 20
919.911324
 10
-713.624305
 20
919.568633
 10
-722.11242
 20
919.439082
 10
-728.717157
 20
919.504558
 10
-735.312191
 20
919.715103
 10
-739.270486
 20
919.911324
  0
LWPOLYLINE
  5
235
100
AcDbEntity
  8
025-DWG
  6
CONTINUOUS
100
AcDbPolyline
 90
        5
 70
   128
 43
0.0
 10
-753.158043
 20
929.467956
 10
-752.862065
 20
929.466286
 10
-752.530288
 20
929.464374
 10
-752.474836
 20
929.464052
 10
-752.419955
 20
929.463734
  0
LINE
  5
236
100
AcDbEntity
  8
025-DWG
  6
CONTINUOUS
100
AcDbLine
 10
-752.529457
 20
920.521603
 30
0.0
 11
-752.419955
 21
929.463734
 31
0.0
  0
LWPOLYLINE
  5
237
100
AcDbEntity
  8
025-DWG
  6
CONTINUOUS
100
AcDbPolyline
 90
       17
 70
   128
 43
0.0
 10
-741.59099
 20
929.467956
 10
-741.702119
 20
930.605125
 10
-742.031235
 20
931.698592
 10
-742.56569
 20
932.706338
 10
-743.284946
 20
933.589634
 10
-744.161361
 20
934.314536
 10
-745.161257
 20
934.853188
 10
-746.246206
 20
935.184887
 10
-747.374516
 20
935.296889
 10
-748.502826
 20
935.184887
 10
-749.587776
 20
934.853188
 10
-750.587672
 20
934.314536
 10
-751.464087
 20
933.589634
 10
-752.183343
 20
932.706338
 10
-752.717798
 20
931.698592
 10
-753.046914
 20
930.605125
 10
-753.158043
 20
929.467956
  0
LWPOLYLINE
  5
238
100
AcDbEntity
  8
025-DWG
  6
CONTINUOUS
100
AcDbPolyline
 90
       20
 70
   128
 43
0.0
 10
-755.090034
 20
929.467956
 10
-755.011153
 20
930.586193
 10
-754.777381
 20
931.681904
 10
-754.303542
 20
932.9199
 10
-753.630428
 20
934.059145
 10
-752.782343
 20
935.054339
 10
-751.778666
 20
935.888815
 10
-750.668987
 20
936.522371
 10
-749.467726
 20
936.955677
 10
-748.236054
 20
937.168907
 10
-746.985222
 20
937.16966
 10
-745.766339
 20
936.958638
 10
-744.598121
 20
936.546872
 10
-743.510464
 20
935.942157
 10
-742.535329
 20
935.166412
 10
-741.687171
 20
934.223549
 10
-741.003165
 20
933.154284
 10
-740.493942
 20
931.960837
 10
-740.186446
 20
930.699703
 10
-740.090016
 20
929.467956
  0
LWPOLYLINE
  5
239
100
AcDbEntity
  8
025-DWG
  6
CONTINUOUS
100
AcDbPolyline
 90
       20
 70
   128
 43
0.0
 10
-739.38406
 20
929.472417
 10
-739.505056
 20
930.89925
 10
-739.860158
 20
932.28615
 10
-740.443349
 20
933.593451
 10
-741.235852
 20
934.784349
 10
-742.215786
 20
935.819223
 10
-743.355139
 20
936.672659
 10
-744.604673
 20
937.307775
 10
-745.941977
 20
937.721248
 10
-747.308575
 20
937.895707
 10
-748.683705
 20
937.83675
 10
-750.017846
 20
937.545873
 10
-751.284618
 20
937.035698
 10
-752.452251
 20
936.31553
 10
-753.486003
 20
935.410977
 10
-754.366839
 20
934.331254
 10
-755.060175
 20
933.119684
 10
-755.551472
 20
931.788389
 10
-755.819269
 20
930.393156
 10
-755.868754
 20
929.472417
  0
LWPOLYLINE
  5
23A
100
AcDbEntity
  8
025-DWG
  6
CONTINUOUS
100
AcDbPolyline
 90
        3
 70
   128
 43
0.0
 10
-742.135996
 20
919.655463
 10
-747.338117
 20
920.030941
 10
-752.529457
 20
920.521603
  0
LWPOLYLINE
  5
23B
100
AcDbEntity
  8
025-DWG
  6
CONTINUOUS
100
AcDbPolyline
 90
        3
 70
   128
 43
0.0
 10
-752.529884
 20
919.544639
 10
-750.55533
 20
919.344113
 10
-742.093097
 20
918.673996
  0
LWPOLYLINE
  5
23C
100
AcDbEntity
  8
025-DWG
  6
CONTINUOUS
100
AcDbPolyline
 90
        9
 70
   128
 43
0.0
 10
-749.909984
 20
930.251678
 10
-749.74319
 20
930.631144
 10
-749.067429
 20
931.356064
 10
-748.207322
 20
931.810676
 10
-747.263444
 20
931.955657
 10
-746.333914
 20
931.78398
 10
-745.511922
 20
931.313385
 10
-744.885905
 20
930.586926
 10
-744.678378
 20
930.05272
  0
LWPOLYLINE
  5
23D
100
AcDbEntity
  8
025-DWG
  6
CONTINUOUS
100
AcDbPolyline
 90
       37
 70
   128
 43
0.0
 10
-749.256359
 20
927.424713
 10
-748.883886
 20
927.127868
 10
-748.464904
 20
926.901634
 10
-748.012144
 20
926.752886
 10
-747.539362
 20
926.686142
 10
-747.060925
 20
926.70343
 10
-746.591368
 20
926.804227
 10
-746.144959
 20
926.985468
 10
-745.735262
 20
927.241647
 10
-745.374726
 20
927.56498
 10
-745.074305
 20
927.945643
 10
-744.843127
 20
928.372069
 10
-744.688217
 20
928.831303
 10
-744.614281
 20
929.309389
 10
-744.623566
 20
929.791802
 10
-744.71579
 20
930.263884
 10
-744.888151
 20
930.711291
 10
-745.135411
 20
931.120428
 10
-745.450057
 20
931.478865
 10
-745.82253
 20
931.77571
 10
-746.241512
 20
932.001944
 10
-746.694273
 20
932.150693
 10
-747.167054
 20
932.217437
 10
-747.645492
 20
932.200148
 10
-748.115049
 20
932.099352
 10
-748.561458
 20
931.91811
 10
-748.971154
 20
931.661931
 10
-749.331691
 20
931.338598
 10
-749.632112
 20
930.957935
 10
-749.863289
 20
930.531509
 10
-750.0182
 20
930.072276
 10
-750.092135
 20
929.59419
 10
-750.08285
 20
929.111777
 10
-749.990626
 20
928.639695
 10
-749.818266
 20
928.192288
 10
-749.571006
 20
927.78315
 10
-749.256359
 20
927.424713
  0
LWPOLYLINE
  5
23E
100
AcDbEntity
  8
025-DWG
  6
CONTINUOUS
100
AcDbPolyline
 90
        5
 70
   128
 43
0.0
 10
-742.256103
 20
929.463734
 10
-742.201602
 20
929.464052
 10
-742.147295
 20
929.464374
 10
-741.838584
 20
929.466286
 10
-741.59099
 20
929.467956
  0
LINE
  5
23F
100
AcDbEntity
  8
025-DWG
  6
CONTINUOUS
100
AcDbLine
 10
-740.090037
 20
929.467956
 30
0.0
 11
-741.590967
 21
929.467956
 31
0.0
  0
LINE
  5
240
100
AcDbEntity
  8
025-DWG
  6
CONTINUOUS
100
AcDbLine
 10
-741.590967
 20
929.467956
 30
0.0
 11
-741.59099
 21
929.467956
 31
0.0
  0
LINE
  5
241
100
AcDbEntity
  8
025-DWG
  6
CONTINUOUS
100
AcDbLine
 10
-740.090016
 20
929.467956
 30
0.0
 11
-740.090037
 21
929.467956
 31
0.0
  0
LWPOLYLINE
  5
242
100
AcDbEntity
  8
025-DWG
  6
CONTINUOUS
100
AcDbPolyline
 90
        5
 70
   128
 43
0.0
 10
-740.090016
 20
929.467956
 10
-739.842423
 20
929.469546
 10
-739.533714
 20
929.471485
 10
-739.443082
 20
929.47205
 10
-739.38406
 20
929.472417
  0
LWPOLYLINE
  5
243
100
AcDbEntity
  8
025-DWG
  6
CONTINUOUS
100
AcDbPolyline
 90
        6
 70
   128
 43
0.0
 10
-742.135996
 20
919.655463
 10
-741.985075
 20
919.639566
 10
-741.836014
 20
919.633149
 10
-741.701311
 20
919.636779
 10
-741.577138
 20
919.650462
 10
-741.47103
 20
919.673593
  0
LINE
  5
244
100
AcDbEntity
  8
025-DWG
  6
CONTINUOUS
100
AcDbLine
 10
-739.976974
 20
919.902598
 30
0.0
 11
-741.47103
 21
919.673593
 31
0.0
  0
LWPOLYLINE
  5
245
100
AcDbEntity
  8
025-DWG
  6
CONTINUOUS
100
AcDbPolyline
 90
        9
 70
   128
 43
0.0
 10
-739.976974
 20
919.902598
 10
-739.909451
 20
919.903473
 10
-739.834218
 20
919.904432
 10
-739.752076
 20
919.905464
 10
-739.663903
 20
919.906559
 10
-739.570641
 20
919.907705
 10
-739.473286
 20
919.90889
 10
-739.372876
 20
919.9101
 10
-739.270486
 20
919.911324
  0
LINE
  5
246
100
AcDbEntity
  8
025-DWG
  6
CONTINUOUS
100
AcDbLine
 10
-742.256103
 20
929.463734
 30
0.0
 11
-742.135996
 21
919.655463
 31
0.0
  0
LINE
  5
247
100
AcDbEntity
  8
025-DWG
  6
CONTINUOUS
100
AcDbLine
 10
-741.47103
 20
919.673593
 30
0.0
 11
-741.590967
 21
929.467956
 31
0.0
  0
LINE
  5
248
100
AcDbEntity
  8
025-DWG
  6
CONTINUOUS
100
AcDbLine
 10
-740.090037
 20
929.467956
 30
0.0
 11
-739.976974
 21
919.902598
 31
0.0
  0
LINE
  5
249
100
AcDbEntity
  8
025-DWG
  6
CONTINUOUS
100
AcDbLine
 10
-739.270486
 20
919.911324
 30
0.0
 11
-739.38406
 21
929.472417
 31
0.0
  0
LWPOLYLINE
  5
24A
100
AcDbEntity
  8
025-DWG
  6
CONTINUOUS
100
AcDbPolyline
 90
        7
 70
   128
 43
0.0
 10
-740.757518
 20
918.700415
 10
-740.97868
 20
918.675204
 10
-741.244515
 20
918.659695
 10
-741.532796
 20
918.655316
 10
-741.851754
 20
918.662025
 10
-741.97154
 20
918.667264
 10
-742.093097
 20
918.673996
  0
LWPOLYLINE
  5
24B
100
AcDbEntity
  8
025-DWG
  6
CONTINUOUS
100
AcDbPolyline
 90
        3
 70
   128
 43
0.0
 10
-740.757518
 20
918.700415
 10
-739.533946
 20
918.886107
 10
-739.257274
 20
918.928966
  0
LWPOLYLINE
  5
24C
100
AcDbEntity
  8
025-DWG
  6
CONTINUOUS
100
AcDbPolyline
 90
        9
 70
   128
 43
0.0
 10
-741.47103
 20
919.673593
 10
-741.448116
 20
919.500992
 10
-741.401953
 20
919.333888
 10
-741.333941
 20
919.17735
 10
-741.246142
 20
919.036123
 10
-741.141219
 20
918.91449
 10
-741.022351
 20
918.816139
 10
-740.893145
 20
918.744052
 10
-740.757518
 20
918.700415
  0
LWPOLYLINE
  5
24D
100
AcDbEntity
  8
025-DWG
  6
CONTINUOUS
100
AcDbPolyline
 90
        9
 70
   128
 43
0.0
 10
-739.976974
 20
919.902598
 10
-739.953531
 20
919.729455
 10
-739.906692
 20
919.561865
 10
-739.837885
 20
919.404947
 10
-739.749213
 20
919.263491
 10
-739.643382
 20
919.141818
 10
-739.523626
 20
919.043642
 10
-739.393599
 20
918.971962
 10
-739.257274
 20
918.928966
  0
LWPOLYLINE
  5
24E
100
AcDbEntity
  8
025-DWG
  6
CONTINUOUS
100
AcDbPolyline
 90
        9
 70
   128
 43
0.0
 10
-739.257274
 20
918.928966
 10
-739.268646
 20
918.974644
 10
-739.277566
 20
919.048576
 10
-739.283762
 20
919.148533
 10
-739.28705
 20
919.271498
 10
-739.28733
 20
919.413763
 10
-739.284592
 20
919.571037
 10
-739.278921
 20
919.738575
 10
-739.270486
 20
919.911324
  0
LWPOLYLINE
  5
24F
100
AcDbEntity
  8
025-DWG
  6
CONTINUOUS
100
AcDbPolyline
 90
        9
 70
   128
 43
0.0
 10
-742.135996
 20
919.655463
 10
-742.144479
 20
919.483198
 10
-742.148969
 20
919.316102
 10
-742.149331
 20
919.15919
 10
-742.145555
 20
919.017172
 10
-742.137753
 20
918.894307
 10
-742.12616
 20
918.794285
 10
-742.111125
 20
918.720106
 10
-742.093097
 20
918.673996
  0
LWPOLYLINE
  5
250
100
AcDbEntity
  8
025-DWG
  6
CONTINUOUS
100
AcDbPolyline
 90
       16
 70
   128
 43
0.0
 10
-752.419955
 20
929.463734
 10
-752.309659
 20
930.529264
 10
-751.98185
 20
931.548361
 10
-751.450872
 20
932.47644
 10
-750.739955
 20
933.272896
 10
-749.880203
 20
933.902883
 10
-748.909228
 20
934.338841
 10
-747.869513
 20
934.561694
 10
-746.806546
 20
934.561694
 10
-745.76683
 20
934.338841
 10
-744.795856
 20
933.902883
 10
-743.936103
 20
933.272896
 10
-743.225186
 20
932.47644
 10
-742.694209
 20
931.548361
 10
-742.3664
 20
930.529264
 10
-742.256103
 20
929.463734
  0
LWPOLYLINE
  5
251
100
AcDbEntity
  8
025-DWG
  6
CONTINUOUS
100
AcDbPolyline
 90
        6
 70
   128
 43
0.0
 10
-765.291337
 20
943.222491
 10
-765.017633
 20
942.898429
 10
-764.521886
 20
942.446717
 10
-763.679746
 20
941.739559
 10
-763.281972
 20
941.403062
 10
-763.274262
 20
941.396449
  0
LWPOLYLINE
  5
252
100
AcDbEntity
  8
025-DWG
  6
CONTINUOUS
100
AcDbPolyline
 90
        9
 70
   128
 43
0.0
 10
-765.291337
 20
943.222491
 10
-765.135158
 20
943.268814
 10
-764.984963
 20
943.336937
 10
-764.844865
 20
943.424993
 10
-764.718703
 20
943.530572
 10
-764.60993
 20
943.650782
 10
-764.521525
 20
943.78233
 10
-764.45591
 20
943.921615
 10
-764.414882
 20
944.064822
  0
LWPOLYLINE
  5
253
100
AcDbEntity
  8
025-DWG
  6
CONTINUOUS
100
AcDbPolyline
 90
        6
 70
   128
 43
0.0
 10
-763.274262
 20
941.396449
 10
-763.278952
 20
941.407492
 10
-763.646048
 20
942.246146
 10
-763.922281
 20
942.860042
 10
-764.183804
 20
943.455893
 10
-764.414882
 20
944.064822
  0
LWPOLYLINE
  5
254
100
AcDbEntity
  8
025-DWG
  6
CONTINUOUS
100
AcDbPolyline
 90
        5
 70
   128
 43
0.0
 10
-765.412895
 20
943.618028
 10
-765.402411
 20
943.517857
 10
-765.379055
 20
943.418518
 10
-765.34209
 20
943.319549
 10
-765.291337
 20
943.222491
  0
LWPOLYLINE
  5
255
100
AcDbEntity
  8
025-DWG
  6
CONTINUOUS
100
AcDbPolyline
 90
        9
 70
   128
 43
0.0
 10
-765.412895
 20
943.618028
 10
-765.228695
 20
943.644678
 10
-765.053077
 20
943.6997
 10
-764.892148
 20
943.781182
 10
-764.751509
 20
943.886289
 10
-764.636049
 20
944.011365
 10
-764.549786
 20
944.152059
 10
-764.49572
 20
944.303477
 10
-764.475733
 20
944.460352
  0
LWPOLYLINE
  5
256
100
AcDbEntity
  8
025-DWG
  6
CONTINUOUS
100
AcDbPolyline
 90
        5
 70
   128
 43
0.0
 10
-764.414882
 20
944.064822
 10
-764.440154
 20
944.161278
 10
-764.458571
 20
944.259387
 10
-764.470416
 20
944.359377
 10
-764.475733
 20
944.460352
  0
LINE
  5
257
100
AcDbEntity
  8
035-DWG
  6
CONTINUOUS
100
AcDbLine
 10
-763.274262
 20
941.396449
 30
0.0
 11
-763.274262
 21
955.748904
 31
0.0
  0
LINE
  5
258
100
AcDbEntity
  8
025-DWG
  6
CONTINUOUS
100
AcDbLine
 10
-755.090006
 20
929.467956
 30
0.0
 11
-755.090034
 21
929.467956
 31
0.0
  0
LWPOLYLINE
  5
259
100
AcDbEntity
  8
025-DWG
  6
CONTINUOUS
100
AcDbPolyline
 90
        5
 70
   128
 43
0.0
 10
-755.868754
 20
929.472417
 10
-755.8099
 20
929.47205
 10
-755.717786
 20
929.471485
 10
-755.386011
 20
929.469546
 10
-755.090034
 20
929.467956
  0
LWPOLYLINE
  5
25A
100
AcDbEntity
  8
025-DWG
  6
CONTINUOUS
100
AcDbPolyline
 90
        9
 70
   128
 43
0.0
 10
-755.964618
 20
921.318291
 10
-755.980876
 20
921.148181
 10
-755.991764
 20
920.983092
 10
-755.996961
 20
920.827896
 10
-755.996314
 20
920.687174
 10
-755.98984
 20
920.565079
 10
-755.977732
 20
920.465216
 10
-755.960347
 20
920.390531
 10
-755.938198
 20
920.343228
  0
LWPOLYLINE
  5
25B
100
AcDbEntity
  8
025-DWG
  6
CONTINUOUS
100
AcDbPolyline
 90
        9
 70
   128
 43
0.0
 10
-755.938198
 20
920.343228
 10
-755.818754
 20
920.36985
 10
-755.698604
 20
920.430217
 10
-755.582025
 20
920.522181
 10
-755.473162
 20
920.642469
 10
-755.375891
 20
920.786803
 10
-755.293671
 20
920.950046
 10
-755.229427
 20
921.126391
 10
-755.185447
 20
921.309564
  0
LWPOLYLINE
  5
25C
100
AcDbEntity
  8
025-DWG
  6
CONTINUOUS
100
AcDbPolyline
 90
        9
 70
   128
 43
0.0
 10
-755.964618
 20
921.318291
 10
-755.861978
 20
921.317067
 10
-755.758664
 20
921.315857
 10
-755.655781
 20
921.314672
 10
-755.554426
 20
921.313526
 10
-755.455681
 20
921.312431
 10
-755.360602
 20
921.311398
 10
-755.270202
 20
921.310439
 10
-755.185447
 20
921.309564
  0
LINE
  5
25D
100
AcDbEntity
  8
025-DWG
  6
CONTINUOUS
100
AcDbLine
 10
-755.185447
 20
921.309564
 30
0.0
 11
-755.090006
 21
929.467956
 31
0.0
  0
LINE
  5
25E
100
AcDbEntity
  8
025-DWG
  6
CONTINUOUS
100
AcDbLine
 10
-755.868754
 20
929.472417
 30
0.0
 11
-755.964618
 21
921.318291
 31
0.0
  0
LINE
  5
25F
100
AcDbEntity
  8
025-DWG
  6
CONTINUOUS
100
AcDbLine
 10
-753.158043
 20
929.467956
 30
0.0
 11
-753.158073
 21
929.467956
 31
0.0
  0
LWPOLYLINE
  5
260
100
AcDbEntity
  8
025-DWG
  6
CONTINUOUS
100
AcDbPolyline
 90
        9
 70
   128
 43
0.0
 10
-754.009144
 20
919.810448
 10
-753.890176
 20
919.837883
 10
-753.770776
 20
919.898848
 10
-753.655166
 20
919.991189
 10
-753.547429
 20
920.111642
 10
-753.451375
 20
920.255949
 10
-753.370398
 20
920.419011
 10
-753.307359
 20
920.595065
 10
-753.264487
 20
920.777889
  0
LWPOLYLINE
  5
261
100
AcDbEntity
  8
025-DWG
  6
CONTINUOUS
100
AcDbPolyline
 90
        6
 70
   128
 43
0.0
 10
-753.264487
 20
920.777889
 10
-753.12264
 20
920.708639
 10
-752.960569
 20
920.642983
 10
-752.790798
 20
920.58659
 10
-752.608014
 20
920.538428
 10
-752.529457
 20
920.521603
  0
LINE
  5
262
100
AcDbEntity
  8
025-DWG
  6
CONTINUOUS
100
AcDbLine
 10
-753.158073
 20
929.467956
 30
0.0
 11
-753.264487
 21
920.777889
 31
0.0
  0
LINE
  5
263
100
AcDbEntity
  8
025-DWG
  6
CONTINUOUS
100
AcDbLine
 10
-753.264487
 20
920.777889
 30
0.0
 11
-755.185447
 21
921.309564
 31
0.0
  0
LWPOLYLINE
  5
264
100
AcDbEntity
  8
025-DWG
  6
CONTINUOUS
100
AcDbPolyline
 90
        3
 70
   128
 43
0.0
 10
-755.938198
 20
920.343228
 10
-754.395131
 20
919.915733
 10
-754.009144
 20
919.810448
  0
LINE
  5
265
100
AcDbEntity
  8
025-DWG
  6
CONTINUOUS
100
AcDbLine
 10
-753.158073
 20
929.467956
 30
0.0
 11
-755.090006
 21
929.467956
 31
0.0
  0
LWPOLYLINE
  5
266
100
AcDbEntity
  8
025-DWG
  6
CONTINUOUS
100
AcDbPolyline
 90
        7
 70
   128
 43
0.0
 10
-752.529884
 20
919.544639
 10
-752.863822
 20
919.585168
 10
-753.203721
 20
919.637108
 10
-753.520793
 20
919.695914
 10
-753.824523
 20
919.763143
 10
-753.918521
 20
919.786532
 10
-754.009144
 20
919.810448
  0
LWPOLYLINE
  5
267
100
AcDbEntity
  8
025-DWG
  6
CONTINUOUS
100
AcDbPolyline
 90
        9
 70
   128
 43
0.0
 10
-752.529884
 20
919.544639
 10
-752.545733
 20
919.591203
 10
-752.557386
 20
919.665483
 10
-752.564495
 20
919.765266
 10
-752.56685
 20
919.887581
 10
-752.56438
 20
920.028784
 10
-752.557158
 20
920.184667
 10
-752.5454
 20
920.350588
 10
-752.529457
 20
920.521603
  0
LWPOLYLINE
  5
268
100
AcDbEntity
  8
035-DWG
  6
CONTINUOUS
100
AcDbPolyline
 90
        6
 70
   128
 43
0.0
 10
-763.274262
 20
955.748904
 10
-762.615979
 20
955.334424
 10
-761.876089
 20
955.031378
 10
-761.119788
 20
954.86234
 10
-760.325256
 20
954.81861
 10
-759.61203
 20
954.891109
  0
LWPOLYLINE
  5
269
100
AcDbEntity
  8
025-DWG
  6
CONTINUOUS
100
AcDbPolyline
 90
        5
 70
   128
 43
0.0
 10
-703.297736
 20
929.467956
 10
-703.050142
 20
929.466286
 10
-702.741431
 20
929.464374
 10
-702.687124
 20
929.464052
 10
-702.632623
 20
929.463734
  0
LINE
  5
26A
100
AcDbEntity
  8
025-DWG
  6
CONTINUOUS
100
AcDbLine
 10
-703.297736
 20
929.467956
 30
0.0
 11
-703.297759
 21
929.467956
 31
0.0
  0
LINE
  5
26B
100
AcDbEntity
  8
025-DWG
  6
CONTINUOUS
100
AcDbLine
 10
-704.798689
 20
929.467956
 30
0.0
 11
-703.297759
 21
929.467956
 31
0.0
  0
LINE
  5
26C
100
AcDbEntity
  8
025-DWG
  6
CONTINUOUS
100
AcDbLine
 10
-704.798711
 20
929.467956
 30
0.0
 11
-704.798689
 21
929.467956
 31
0.0
  0
LWPOLYLINE
  5
26D
100
AcDbEntity
  8
025-DWG
  6
CONTINUOUS
100
AcDbPolyline
 90
        5
 70
   128
 43
0.0
 10
-705.504666
 20
929.472417
 10
-705.445644
 20
929.47205
 10
-705.355012
 20
929.471485
 10
-705.046303
 20
929.469546
 10
-704.798711
 20
929.467956
  0
LWPOLYLINE
  5
26E
100
AcDbEntity
  8
025-DWG
  6
CONTINUOUS
100
AcDbPolyline
 90
        6
 70
   128
 43
0.0
 10
-703.417697
 20
919.673593
 10
-703.314199
 20
919.650884
 10
-703.189788
 20
919.636938
 10
-703.054499
 20
919.633134
 10
-702.904475
 20
919.639504
 10
-702.75273
 20
919.655463
  0
LINE
  5
26F
100
AcDbEntity
  8
025-DWG
  6
CONTINUOUS
100
AcDbLine
 10
-703.417697
 20
919.673593
 30
0.0
 11
-704.911752
 21
919.902598
 31
0.0
  0
LWPOLYLINE
  5
270
100
AcDbEntity
  8
025-DWG
  6
CONTINUOUS
100
AcDbPolyline
 90
        9
 70
   128
 43
0.0
 10
-705.61824
 20
919.911324
 10
-705.51585
 20
919.9101
 10
-705.41544
 20
919.90889
 10
-705.318085
 20
919.907705
 10
-705.224823
 20
919.906559
 10
-705.13665
 20
919.905464
 10
-705.054508
 20
919.904432
 10
-704.979275
 20
919.903473
 10
-704.911752
 20
919.902598
  0
LINE
  5
271
100
AcDbEntity
  8
025-DWG
  6
CONTINUOUS
100
AcDbLine
 10
-702.75273
 20
919.655463
 30
0.0
 11
-702.632623
 21
929.463734
 31
0.0
  0
LINE
  5
272
100
AcDbEntity
  8
025-DWG
  6
CONTINUOUS
100
AcDbLine
 10
-703.297759
 20
929.467956
 30
0.0
 11
-703.417697
 21
919.673593
 31
0.0
  0
LINE
  5
273
100
AcDbEntity
  8
025-DWG
  6
CONTINUOUS
100
AcDbLine
 10
-704.911752
 20
919.902598
 30
0.0
 11
-704.798689
 21
929.467956
 31
0.0
  0
LINE
  5
274
100
AcDbEntity
  8
025-DWG
  6
CONTINUOUS
100
AcDbLine
 10
-705.504666
 20
929.472417
 30
0.0
 11
-705.61824
 21
919.911324
 31
0.0
  0
LWPOLYLINE
  5
275
100
AcDbEntity
  8
025-DWG
  6
CONTINUOUS
100
AcDbPolyline
 90
        3
 70
   128
 43
0.0
 10
-705.631452
 20
918.928966
 10
-704.40797
 20
918.741867
 10
-704.131208
 20
918.700415
  0
LWPOLYLINE
  5
276
100
AcDbEntity
  8
025-DWG
  6
CONTINUOUS
100
AcDbPolyline
 90
        7
 70
   128
 43
0.0
 10
-702.795629
 20
918.673996
 10
-703.116498
 20
918.659338
 10
-703.431092
 20
918.65541
 10
-703.713018
 20
918.662501
 10
-703.970309
 20
918.680725
 10
-704.053422
 20
918.689892
 10
-704.131208
 20
918.700415
  0
LWPOLYLINE
  5
277
100
AcDbEntity
  8
025-DWG
  6
CONTINUOUS
100
AcDbPolyline
 90
        9
 70
   128
 43
0.0
 10
-702.795629
 20
918.673996
 10
-702.777602
 20
918.720106
 10
-702.762566
 20
918.794285
 10
-702.750973
 20
918.894307
 10
-702.743171
 20
919.017172
 10
-702.739395
 20
919.15919
 10
-702.739757
 20
919.316102
 10
-702.744247
 20
919.483198
 10
-702.75273
 20
919.655463
  0
LWPOLYLINE
  5
278
100
AcDbEntity
  8
025-DWG
  6
CONTINUOUS
100
AcDbPolyline
 90
        9
 70
   128
 43
0.0
 10
-704.131208
 20
918.700415
 10
-703.995581
 20
918.744052
 10
-703.866375
 20
918.816139
 10
-703.747508
 20
918.91449
 10
-703.642584
 20
919.036123
 10
-703.554785
 20
919.17735
 10
-703.486773
 20
919.333888
 10
-703.44061
 20
919.500992
 10
-703.417697
 20
919.673593
  0
LWPOLYLINE
  5
279
100
AcDbEntity
  8
025-DWG
  6
CONTINUOUS
100
AcDbPolyline
 90
        9
 70
   128
 43
0.0
 10
-705.631452
 20
918.928966
 10
-705.495127
 20
918.971962
 10
-705.3651
 20
919.043642
 10
-705.245344
 20
919.141818
 10
-705.139513
 20
919.263491
 10
-705.050841
 20
919.404947
 10
-704.982034
 20
919.561865
 10
-704.935195
 20
919.729455
 10
-704.911752
 20
919.902598
  0
LWPOLYLINE
  5
27A
100
AcDbEntity
  8
025-DWG
  6
CONTINUOUS
100
AcDbPolyline
 90
        9
 70
   128
 43
0.0
 10
-705.61824
 20
919.911324
 10
-705.609805
 20
919.738575
 10
-705.604134
 20
919.571037
 10
-705.601396
 20
919.413763
 10
-705.601676
 20
919.271498
 10
-705.604964
 20
919.148533
 10
-705.611161
 20
919.048576
 10
-705.62008
 20
918.974644
 10
-705.631452
 20
918.928966
  0
LWPOLYLINE
  5
27B
100
AcDbEntity
  8
025-DWG
  6
CONTINUOUS
100
AcDbPolyline
 90
        9
 70
   128
 43
0.0
 10
-694.985105
 20
930.275796
 10
-695.321751
 20
930.87134
 10
-696.062645
 20
931.522207
 10
-696.958248
 20
931.887066
 10
-697.907868
 20
931.937288
 10
-698.814933
 20
931.673686
 10
-699.587514
 20
931.121119
 10
-700.139446
 20
930.331192
 10
-700.214704
 20
930.058273
  0
LWPOLYLINE
  5
27C
100
AcDbEntity
  8
025-DWG
  6
CONTINUOUS
100
AcDbPolyline
 90
       37
 70
   128
 43
0.0
 10
-695.632367
 20
927.424713
 10
-696.00484
 20
927.127868
 10
-696.423822
 20
926.901634
 10
-696.876582
 20
926.752886
 10
-697.349364
 20
926.686142
 10
-697.827802
 20
926.70343
 10
-698.297358
 20
926.804227
 10
-698.743767
 20
926.985468
 10
-699.153464
 20
927.241647
 10
-699.514
 20
927.56498
 10
-699.814421
 20
927.945643
 10
-700.045599
 20
928.372069
 10
-700.200509
 20
928.831303
 10
-700.274445
 20
929.309389
 10
-700.26516
 20
929.791802
 10
-700.172936
 20
930.263884
 10
-700.000575
 20
930.711291
 10
-699.753315
 20
931.120428
 10
-699.438669
 20
931.478865
 10
-699.066196
 20
931.77571
 10
-698.647214
 20
932.001944
 10
-698.194454
 20
932.150693
 10
-697.721672
 20
932.217437
 10
-697.243234
 20
932.200148
 10
-696.773677
 20
932.099352
 10
-696.327268
 20
931.91811
 10
-695.917572
 20
931.661931
 10
-695.557035
 20
931.338598
 10
-695.256614
 20
930.957935
 10
-695.025437
 20
930.531509
 10
-694.870526
 20
930.072276
 10
-694.796591
 20
929.59419
 10
-694.805876
 20
929.111777
 10
-694.8981
 20
928.639695
 10
-695.07046
 20
928.192288
 10
-695.31772
 20
927.78315
 10
-695.632367
 20
927.424713
  0
LINE
  5
27D
100
AcDbEntity
  8
025-DWG
  6
CONTINUOUS
100
AcDbLine
 10
-772.531619
 20
969.19469
 30
0.0
 11
-772.531619
 21
963.329991
 31
0.0
  0
LINE
  5
27E
100
AcDbEntity
  8
025-DWG
  6
CONTINUOUS
100
AcDbLine
 10
-772.531619
 20
963.329991
 30
0.0
 11
-773.262689
 21
962.869799
 31
0.0
  0
LWPOLYLINE
  5
27F
100
AcDbEntity
  8
025-DWG
  6
CONTINUOUS
100
AcDbPolyline
 90
        9
 70
   128
 43
0.0
 10
-772.597634
 20
961.35215
 10
-772.785286
 20
961.374361
 10
-772.968645
 20
961.42637
 10
-773.141046
 20
961.506285
 10
-773.296222
 20
961.611202
 10
-773.428534
 20
961.737307
 10
-773.53317
 20
961.880016
 10
-773.606327
 20
962.03414
 10
-773.645347
 20
962.194079
  0
LWPOLYLINE
  5
280
100
AcDbEntity
  8
025-DWG
  6
CONTINUOUS
100
AcDbPolyline
 90
        5
 70
   128
 43
0.0
 10
-773.262689
 20
962.869799
 10
-773.414816
 20
962.709217
 10
-773.563414
 20
962.419275
 10
-773.604908
 20
962.311677
 10
-773.645347
 20
962.194079
  0
LINE
  5
281
100
AcDbEntity
  8
025-DWG
  6
CONTINUOUS
100
AcDbLine
 10
-770.587469
 20
963.680293
 30
0.0
 11
-770.587469
 21
969.538779
 31
0.0
  0
LWPOLYLINE
  5
282
100
AcDbEntity
  8
025-DWG
  6
CONTINUOUS
100
AcDbPolyline
 90
        9
 70
   128
 43
0.0
 10
-770.587469
 20
963.680293
 10
-770.543147
 20
963.494995
 10
-770.493141
 20
963.316439
 10
-770.439273
 20
963.151124
 10
-770.383501
 20
963.005066
 10
-770.327856
 20
962.88358
 10
-770.274363
 20
962.791086
 10
-770.224967
 20
962.730951
 10
-770.181468
 20
962.705362
  0
LWPOLYLINE
  5
283
100
AcDbEntity
  8
025-DWG
  6
CONTINUOUS
100
AcDbPolyline
 90
        5
 70
   128
 43
0.0
 10
-771.342957
 20
962.356119
 10
-771.15569
 20
962.437778
 10
-770.825503
 20
962.541807
 10
-770.382884
 20
962.657876
 10
-770.181468
 20
962.705362
  0
LINE
  5
284
100
AcDbEntity
  8
025-DWG
  6
CONTINUOUS
100
AcDbLine
 10
-772.070893
 20
961.896605
 30
0.0
 11
-771.342957
 21
962.356119
 31
0.0
  0
LWPOLYLINE
  5
285
100
AcDbEntity
  8
025-DWG
  6
CONTINUOUS
100
AcDbPolyline
 90
        3
 70
   128
 43
0.0
 10
-761.475014
 20
963.114769
 10
-761.051231
 20
963.221944
 10
-760.68669
 20
963.383742
  0
LWPOLYLINE
  5
286
100
AcDbEntity
  8
025-DWG
  6
CONTINUOUS
100
AcDbPolyline
 90
        6
 70
   128
 43
0.0
 10
-765.018674
 20
963.101311
 10
-764.905822
 20
963.257098
 10
-764.782009
 20
963.386406
 10
-764.648953
 20
963.49169
 10
-764.509284
 20
963.572846
 10
-764.505939
 20
963.574462
  0
LINE
  5
287
100
AcDbEntity
  8
025-DWG
  6
CONTINUOUS
100
AcDbLine
 10
-763.691595
 20
961.014405
 30
0.0
 11
-764.505939
 21
963.574462
 31
0.0
  0
LWPOLYLINE
  5
288
100
AcDbEntity
  8
025-DWG
  6
CONTINUOUS
100
AcDbPolyline
 90
        6
 70
   128
 43
0.0
 10
-764.505939
 20
963.574462
 10
-764.512538
 20
963.572573
 10
-764.823164
 20
963.4655
 10
-765.126029
 20
963.324066
 10
-765.421106
 20
963.144088
 10
-765.699616
 20
962.923282
  0
LINE
  5
289
100
AcDbEntity
  8
025-DWG
  6
CONTINUOUS
100
AcDbLine
 10
-760.452806
 20
963.473938
 30
0.0
 11
-762.165111
 21
961.7478
 31
0.0
  0
LWPOLYLINE
  5
28A
100
AcDbEntity
  8
025-DWG
  6
CONTINUOUS
100
AcDbPolyline
 90
        9
 70
   128
 43
0.0
 10
-765.699616
 20
962.923282
 10
-765.600183
 20
962.911196
 10
-765.502659
 20
962.909166
 10
-765.408193
 20
962.917217
 10
-765.317897
 20
962.935254
 10
-765.232834
 20
962.963064
 10
-765.154004
 20
963.00032
 10
-765.082337
 20
963.046584
 10
-765.018674
 20
963.101311
  0
LWPOLYLINE
  5
28B
100
AcDbEntity
  8
025-DWG
  6
CONTINUOUS
100
AcDbPolyline
 90
        7
 70
   128
 43
0.0
 10
-765.210318
 20
962.234261
 10
-765.214533
 20
962.400888
 10
-765.201708
 20
962.568876
 10
-765.16973
 20
962.738652
 10
-765.114946
 20
962.909715
 10
-765.0723
 20
963.005377
 10
-765.018674
 20
963.101311
  0
LWPOLYLINE
  5
28C
100
AcDbEntity
  8
025-DWG
  6
CONTINUOUS
100
AcDbPolyline
 90
        6
 70
   128
 43
0.0
 10
-763.655155
 20
960.965135
 10
-763.218389
 20
961.058103
 10
-762.807869
 20
961.226744
 10
-762.437004
 20
961.46555
 10
-762.117908
 20
961.766721
 10
-761.997156
 20
961.915858
  0
LWPOLYLINE
  5
28D
100
AcDbEntity
  8
025-DWG
  6
CONTINUOUS
100
AcDbPolyline
 90
        5
 70
   128
 43
0.0
 10
-763.503485
 20
961.051696
 10
-763.54091
 20
961.034796
 10
-763.578664
 20
961.014711
 10
-763.616781
 20
960.991459
 10
-763.655155
 20
960.965135
  0
LWPOLYLINE
  5
28E
100
AcDbEntity
  8
025-DWG
  6
CONTINUOUS
100
AcDbPolyline
 90
        5
 70
   128
 43
0.0
 10
-763.655155
 20
960.965135
 10
-763.664522
 20
960.982017
 10
-763.673719
 20
960.995871
 10
-763.682755
 20
961.00669
 10
-763.691595
 20
961.014405
  0
LWPOLYLINE
  5
28F
100
AcDbEntity
  8
025-DWG
  6
CONTINUOUS
100
AcDbPolyline
 90
        5
 70
   128
 43
0.0
 10
-763.503485
 20
961.051696
 10
-763.083285
 20
961.16168
 10
-762.689539
 20
961.343507
 10
-762.33433
 20
961.591599
 10
-762.202254
 20
961.710922
  0
LINE
  5
290
100
AcDbEntity
  8
025-DWG
  6
CONTINUOUS
100
AcDbLine
 10
-761.475014
 20
963.114769
 30
0.0
 11
-763.503485
 21
961.051696
 31
0.0
  0
LINE
  5
291
100
AcDbEntity
  8
025-DWG
  6
CONTINUOUS
100
AcDbLine
 10
-763.503485
 20
961.051696
 30
0.0
 11
-763.691595
 21
961.014405
 31
0.0
  0
LINE
  5
292
100
AcDbEntity
  8
025-DWG
  6
CONTINUOUS
100
AcDbLine
 10
-762.202254
 20
961.710922
 30
0.0
 11
-762.164899
 21
961.748016
 31
0.0
  0
LWPOLYLINE
  5
293
100
AcDbEntity
  8
025-DWG
  6
CONTINUOUS
100
AcDbPolyline
 90
        9
 70
   128
 43
0.0
 10
-763.72809
 20
958.457138
 10
-763.311448
 20
958.534712
 10
-762.928667
 20
958.609777
 10
-762.592131
 20
958.679904
 10
-762.312728
 20
958.742824
 10
-762.099496
 20
958.796502
 10
-761.959333
 20
958.839201
 10
-761.896775
 20
958.869539
 10
-761.893576
 20
958.876644
  0
LWPOLYLINE
  5
294
100
AcDbEntity
  8
025-DWG
  6
CONTINUOUS
100
AcDbPolyline
 90
        9
 70
   128
 43
0.0
 10
-763.745499
 20
958.86072
 10
-763.336036
 20
958.878072
 10
-762.959708
 20
958.906695
 10
-762.628042
 20
958.945712
 10
-762.351198
 20
958.993928
 10
-762.137657
 20
959.049865
 10
-761.993959
 20
959.111811
 10
-761.924506
 20
959.177869
 10
-761.918133
 20
959.202785
  0
LWPOLYLINE
  5
295
100
AcDbEntity
  8
025-DWG
  6
CONTINUOUS
100
AcDbPolyline
 90
        5
 70
   128
 43
0.0
 10
-763.745499
 20
958.86072
 10
-763.745005
 20
958.760653
 10
-763.742009
 20
958.660039
 10
-763.7364
 20
958.558689
 10
-763.72809
 20
958.457138
  0
LINE
  5
296
100
AcDbEntity
  8
025-DWG
  6
CONTINUOUS
100
AcDbLine
 10
-764.475733
 20
958.457138
 30
0.0
 11
-763.72809
 21
958.457138
 31
0.0
  0
LWPOLYLINE
  5
297
100
AcDbEntity
  8
025-DWG
  6
CONTINUOUS
100
AcDbPolyline
 90
        6
 70
   128
 43
0.0
 10
-764.513681
 20
960.034042
 10
-764.500372
 20
959.902446
 10
-764.488944
 20
959.611369
 10
-764.480462
 20
959.185599
 10
-764.476129
 20
958.67267
 10
-764.475733
 20
958.457138
  0
LWPOLYLINE
  5
298
100
AcDbEntity
  8
025-DWG
  6
CONTINUOUS
100
AcDbPolyline
 90
        3
 70
   128
 43
0.0
 10
-761.911097
 20
959.202442
 10
-761.916844
 20
959.10019
 10
-761.886376
 20
958.876556
  0
LWPOLYLINE
  5
299
100
AcDbEntity
  8
025-DWG
  6
CONTINUOUS
100
AcDbPolyline
 90
        5
 70
   128
 43
0.0
 10
-761.8918
 20
958.87884
 10
-761.781868
 20
958.469489
 10
-761.57524
 20
958.079149
 10
-761.393961
 20
957.861123
 10
-761.245542
 20
957.734789
  0
LINE
  5
29A
100
AcDbEntity
  8
025-DWG
  6
CONTINUOUS
100
AcDbLine
 10
-765.210318
 20
962.234261
 30
0.0
 11
-764.513681
 21
960.034042
 31
0.0
  0
LWPOLYLINE
  5
29B
100
AcDbEntity
  8
025-DWG
  6
CONTINUOUS
100
AcDbPolyline
 90
        5
 70
   128
 43
0.0
 10
-763.655155
 20
960.965135
 10
-763.692182
 20
960.631612
 10
-763.721468
 20
960.05729
 10
-763.740525
 20
959.294897
 10
-763.745499
 20
958.86072
  0
LWPOLYLINE
  5
29C
100
AcDbEntity
  8
025-DWG
  6
CONTINUOUS
100
AcDbPolyline
 90
        9
 70
   128
 43
0.0
 10
-764.513681
 20
960.034042
 10
-764.498255
 20
960.206338
 10
-764.453189
 20
960.373445
 10
-764.379838
 20
960.530331
 10
-764.280414
 20
960.67227
 10
-764.157908
 20
960.794989
 10
-764.016012
 20
960.894792
 10
-763.858998
 20
960.968672
 10
-763.691595
 20
961.014405
  0
LWPOLYLINE
  5
29D
100
AcDbEntity
  8
025-DWG
  6
CONTINUOUS
100
AcDbPolyline
 90
        8
 70
   128
 43
0.0
 10
-761.733378
 20
962.183021
 10
-761.735391
 20
962.170204
 10
-761.775434
 20
961.846362
 10
-761.816547
 20
961.416307
 10
-761.854016
 20
960.899341
 10
-761.885536
 20
960.301558
 10
-761.908505
 20
959.647615
 10
-761.916905
 20
959.202744
  0
LWPOLYLINE
  5
29E
100
AcDbEntity
  8
025-DWG
  6
CONTINUOUS
100
AcDbPolyline
 90
        6
 70
   128
 43
0.0
 10
-764.505939
 20
963.574462
 10
-765.318599
 20
963.408191
 10
-767.015714
 20
963.0502
 10
-768.706861
 20
962.678901
 10
-770.392201
 20
962.294292
 10
-772.070893
 20
961.896605
  0
LWPOLYLINE
  5
29F
100
AcDbEntity
  8
025-DWG
  6
CONTINUOUS
100
AcDbPolyline
 90
        9
 70
   128
 43
0.0
 10
-766.146623
 20
961.391982
 10
-765.962552
 20
961.418741
 10
-765.787078
 20
961.473836
 10
-765.626298
 20
961.555352
 10
-765.485798
 20
961.660456
 10
-765.370459
 20
961.785498
 10
-765.28429
 20
961.926132
 10
-765.230284
 20
962.077473
 10
-765.210318
 20
962.234261
  0
LWPOLYLINE
  5
2A0
100
AcDbEntity
  8
025-DWG
  6
CONTINUOUS
100
AcDbPolyline
 90
        5
 70
   128
 43
0.0
 10
-765.699616
 20
962.923282
 10
-765.96334
 20
962.456115
 10
-766.106692
 20
961.968411
 10
-766.142805
 20
961.680198
 10
-766.146623
 20
961.391982
  0
LWPOLYLINE
  5
2A1
100
AcDbEntity
  8
025-DWG
  6
CONTINUOUS
100
AcDbPolyline
 90
        9
 70
   128
 43
0.0
 10
-770.587575
 20
970.514725
 10
-770.625472
 20
970.503427
 10
-770.653691
 20
970.452987
 10
-770.671088
 20
970.365451
 10
-770.676957
 20
970.24437
 10
-770.671059
 20
970.094658
 10
-770.653634
 20
969.922391
 10
-770.625388
 20
969.734557
 10
-770.587469
 20
969.538779
  0
LWPOLYLINE
  5
2A2
100
AcDbEntity
  8
035-DWG
  6
CONTINUOUS
100
AcDbPolyline
 90
        7
 70
   128
 43
0.0
 10
-772.086439
 20
970.037826
 10
-772.012162
 20
970.084133
 10
-771.8651
 20
970.154298
 10
-771.635601
 20
970.240017
 10
-771.315332
 20
970.337678
 10
-770.915615
 20
970.442144
 10
-770.602863
 20
970.514085
  0
LINE
  5
2A3
100
AcDbEntity
  8
025-DWG
  6
CONTINUOUS
100
AcDbLine
 10
-757.748331
 20
964.068861
 30
0.0
 11
-757.712549
 21
964.065232
 31
0.0
  0
LWPOLYLINE
  5
2A4
100
AcDbEntity
  8
025-DWG
  6
CONTINUOUS
100
AcDbPolyline
 90
        8
 70
   128
 43
0.0
 10
-757.748331
 20
964.068861
 10
-758.483703
 20
963.93793
 10
-759.176087
 20
963.800878
 10
-759.805186
 20
963.662082
 10
-760.355141
 20
963.525926
 10
-760.813227
 20
963.395791
 10
-761.162626
 20
963.277061
 10
-761.475014
 20
963.114769
  0
LWPOLYLINE
  5
2A5
100
AcDbEntity
  8
025-DWG
  6
CONTINUOUS
100
AcDbPolyline
 90
       10
 70
   128
 43
0.0
 10
-757.711015
 20
964.064082
 10
-758.020507
 20
964.012127
 10
-758.640681
 20
963.897252
 10
-759.21819
 20
963.779479
 10
-759.725203
 20
963.665427
 10
-760.149253
 20
963.559432
 10
-760.436764
 20
963.478995
 10
-760.617157
 20
963.422137
 10
-760.69421
 20
963.394554
 10
-760.690936
 20
963.396098
  0
LWPOLYLINE
  5
2A6
100
AcDbEntity
  8
025-DWG
  6
CONTINUOUS
100
AcDbPolyline
 90
        5
 70
   128
 43
0.0
 10
-761.246496
 20
957.736305
 10
-760.897148
 20
957.517796
 10
-760.455478
 20
957.36709
 10
-759.974175
 20
957.316652
 10
-759.593175
 20
957.361944
  0
LWPOLYLINE
  5
2A7
100
AcDbEntity
  8
025-DWG
  6
CONTINUOUS
100
AcDbPolyline
 90
        6
 70
   128
 43
0.0
 10
-772.597634
 20
961.35215
 10
-772.488981
 20
961.514669
 10
-772.377184
 20
961.653956
 10
-772.261214
 20
961.76973
 10
-772.143406
 20
961.857655
 10
-772.070893
 20
961.896605
  0
LWPOLYLINE
  5
2A8
100
AcDbEntity
  8
025-DWG
  6
CONTINUOUS
100
AcDbPolyline
 90
        9
 70
   128
 43
0.0
 10
-772.070893
 20
961.896605
 10
-772.284832
 20
961.878686
 10
-772.498757
 20
961.908719
 10
-772.702318
 20
961.985253
 10
-772.885664
 20
962.104583
 10
-773.039927
 20
962.260937
 10
-773.157641
 20
962.44675
 10
-773.233113
 20
962.653031
 10
-773.262689
 20
962.869799
  0
LWPOLYLINE
  5
2A9
100
AcDbEntity
  8
025-DWG
  6
CONTINUOUS
100
AcDbPolyline
 90
        9
 70
   128
 43
0.0
 10
-772.531619
 20
963.329991
 10
-772.502168
 20
963.113581
 10
-772.426978
 20
962.907606
 10
-772.309675
 20
962.721994
 10
-772.155913
 20
962.565695
 10
-771.973107
 20
962.446244
 10
-771.770069
 20
962.3694
 10
-771.556589
 20
962.338867
 10
-771.342957
 20
962.356119
  0
LWPOLYLINE
  5
2AA
100
AcDbEntity
  8
025-DWG
  6
CONTINUOUS
100
AcDbPolyline
 90
        5
 70
   128
 43
0.0
 10
-770.587469
 20
963.680293
 10
-771.376323
 20
963.563849
 10
-772.017633
 20
963.452476
 10
-772.437194
 20
963.359582
 10
-772.531619
 20
963.329991
  0
LWPOLYLINE
  5
2AB
100
AcDbEntity
  8
025-DWG
  6
CONTINUOUS
100
AcDbPolyline
 90
        3
 70
   128
 43
0.0
 10
-772.597634
 20
961.35215
 10
-769.164164
 20
962.165165
 10
-765.699616
 20
962.923282
  0
LWPOLYLINE
  5
2AC
100
AcDbEntity
  8
025-DWG
  6
CONTINUOUS
100
AcDbPolyline
 90
        7
 70
   128
 43
0.0
 10
-772.087642
 20
970.040063
 10
-772.207104
 20
969.950497
 10
-772.322884
 20
969.828447
 10
-772.415611
 20
969.687408
 10
-772.482507
 20
969.531607
 10
-772.521566
 20
969.36571
 10
-772.531619
 20
969.19469
  0
LWPOLYLINE
  5
2AD
100
AcDbEntity
  8
025-DWG
  6
CONTINUOUS
100
AcDbPolyline
 90
        5
 70
   128
 43
0.0
 10
-772.531619
 20
969.19469
 10
-772.220745
 20
969.274961
 10
-771.670204
 20
969.377271
 10
-770.93761
 20
969.49032
 10
-770.587469
 20
969.538779
  0
LINE
  5
2AE
100
AcDbEntity
  8
035-DWG
  6
CONTINUOUS
100
AcDbLine
 10
-660.248812
 20
923.766347
 30
0.0
 11
-660.248812
 21
961.326258
 31
0.0
  0
LWPOLYLINE
  5
2AF
100
AcDbEntity
  8
025-DWG
  6
CONTINUOUS
100
AcDbPolyline
 90
        4
 70
   128
 43
0.0
 10
-672.290871
 20
961.35201
 10
-671.940742
 20
960.275238
 10
-670.540251
 20
955.96739
 10
-665.277667
 20
939.770846
  0
LINE
  5
2B0
100
AcDbEntity
  8
025-DWG
  6
CONTINUOUS
100
AcDbLine
 10
-664.22601
 20
940.612536
 30
0.0
 11
-671.243139
 21
962.193938
 31
0.0
  0
LWPOLYLINE
  5
2B1
100
AcDbEntity
  8
025-DWG
  6
CONTINUOUS
100
AcDbPolyline
 90
        9
 70
   128
 43
0.0
 10
-685.299448
 20
957.352628
 10
-685.247509
 20
957.32645
 10
-685.178531
 20
957.203023
 10
-685.132503
 20
956.984412
 10
-685.111321
 20
956.679618
 10
-685.115856
 20
956.301189
 10
-685.145923
 20
955.864706
 10
-685.200282
 20
955.388139
 10
-685.276696
 20
954.891109
  0
LWPOLYLINE
  5
2B2
100
AcDbEntity
  8
025-DWG
  6
CONTINUOUS
100
AcDbPolyline
 90
        5
 70
   128
 43
0.0
 10
-681.614464
 20
955.748904
 10
-681.377859
 20
956.609607
 10
-681.237287
 20
957.508727
 10
-681.191155
 20
957.982012
 10
-681.160636
 20
958.457138
  0
LWPOLYLINE
  5
2B3
100
AcDbEntity
  8
025-DWG
  6
CONTINUOUS
100
AcDbPolyline
 90
        9
 70
   128
 43
0.0
 10
-683.641467
 20
957.731853
 10
-683.609985
 20
957.745436
 10
-683.4694
 20
957.711526
 10
-683.257515
 20
957.573992
 10
-682.985517
 20
957.340096
 10
-682.667768
 20
957.022186
 10
-682.321045
 20
956.637048
 10
-681.963653
 20
956.205017
 10
-681.614464
 20
955.748904
  0
LINE
  5
2B4
100
AcDbEntity
  8
025-DWG
  6
CONTINUOUS
100
AcDbLine
 10
-680.412993
 20
944.461005
 30
0.0
 11
-680.412993
 21
958.457138
 31
0.0
  0
LWPOLYLINE
  5
2B5
100
AcDbEntity
  8
025-DWG
  6
CONTINUOUS
100
AcDbPolyline
 90
        3
 70
   128
 43
0.0
 10
-679.678439
 20
962.234162
 10
-680.045717
 20
953.347651
 10
-680.412993
 20
944.461005
  0
LWPOLYLINE
  5
2B6
100
AcDbEntity
  8
025-DWG
  6
CONTINUOUS
100
AcDbPolyline
 90
        4
 70
   128
 43
0.0
 10
-679.475824
 20
943.618681
 10
-679.431648
 20
944.688852
 10
-679.254943
 20
948.969516
 10
-678.74213
 20
961.391883
  0
LWPOLYLINE
  5
2B7
100
AcDbEntity
  8
025-DWG
  6
CONTINUOUS
100
AcDbPolyline
 90
        5
 70
   128
 43
0.0
 10
-692.468771
 20
929.463734
 10
-692.41389
 20
929.464052
 10
-692.358438
 20
929.464374
 10
-692.026662
 20
929.466286
 10
-691.730683
 20
929.467956
  0
LINE
  5
2B8
100
AcDbEntity
  8
025-DWG
  6
CONTINUOUS
100
AcDbLine
 10
-691.730653
 20
929.467956
 30
0.0
 11
-691.730683
 21
929.467956
 31
0.0
  0
LWPOLYLINE
  5
2B9
100
AcDbEntity
  8
025-DWG
  6
CONTINUOUS
100
AcDbPolyline
 90
        5
 70
   128
 43
0.0
 10
-689.798692
 20
929.467956
 10
-689.502715
 20
929.469546
 10
-689.17094
 20
929.471485
 10
-689.078826
 20
929.47205
 10
-689.019972
 20
929.472417
  0
LINE
  5
2BA
100
AcDbEntity
  8
025-DWG
  6
CONTINUOUS
100
AcDbLine
 10
-689.79872
 20
929.467956
 30
0.0
 11
-689.798692
 21
929.467956
 31
0.0
  0
LINE
  5
2BB
100
AcDbEntity
  8
025-DWG
  6
CONTINUOUS
100
AcDbLine
 10
-691.730653
 20
929.467956
 30
0.0
 11
-689.79872
 21
929.467956
 31
0.0
  0
LWPOLYLINE
  5
2BC
100
AcDbEntity
  8
025-DWG
  6
CONTINUOUS
100
AcDbPolyline
 90
        6
 70
   128
 43
0.0
 10
-692.35927
 20
920.521603
 10
-692.193818
 20
920.559749
 10
-692.026994
 20
920.608731
 10
-691.873192
 20
920.66385
 10
-691.727226
 20
920.726377
 10
-691.624239
 20
920.777889
  0
LWPOLYLINE
  5
2BD
100
AcDbEntity
  8
025-DWG
  6
CONTINUOUS
100
AcDbPolyline
 90
        9
 70
   128
 43
0.0
 10
-691.624239
 20
920.777889
 10
-691.581367
 20
920.595065
 10
-691.518328
 20
920.419011
 10
-691.437351
 20
920.255949
 10
-691.341297
 20
920.111642
 10
-691.23356
 20
919.991189
 10
-691.11795
 20
919.898848
 10
-690.99855
 20
919.837883
 10
-690.879582
 20
919.810448
  0
LINE
  5
2BE
100
AcDbEntity
  8
025-DWG
  6
CONTINUOUS
100
AcDbLine
 10
-689.703279
 20
921.309564
 30
0.0
 11
-691.624239
 21
920.777889
 31
0.0
  0
LINE
  5
2BF
100
AcDbEntity
  8
025-DWG
  6
CONTINUOUS
100
AcDbLine
 10
-689.79872
 20
929.467956
 30
0.0
 11
-689.703279
 21
921.309564
 31
0.0
  0
LINE
  5
2C0
100
AcDbEntity
  8
025-DWG
  6
CONTINUOUS
100
AcDbLine
 10
-692.468771
 20
929.463734
 30
0.0
 11
-692.35927
 21
920.521603
 31
0.0
  0
LINE
  5
2C1
100
AcDbEntity
  8
025-DWG
  6
CONTINUOUS
100
AcDbLine
 10
-691.624239
 20
920.777889
 30
0.0
 11
-691.730653
 21
929.467956
 31
0.0
  0
LWPOLYLINE
  5
2C2
100
AcDbEntity
  8
025-DWG
  6
CONTINUOUS
100
AcDbPolyline
 90
        9
 70
   128
 43
0.0
 10
-692.35927
 20
920.521603
 10
-692.343326
 20
920.350588
 10
-692.331568
 20
920.184667
 10
-692.324346
 20
920.028784
 10
-692.321876
 20
919.887581
 10
-692.324231
 20
919.765266
 10
-692.33134
 20
919.665483
 10
-692.342993
 20
919.591203
 10
-692.358842
 20
919.544639
  0
LWPOLYLINE
  5
2C3
100
AcDbEntity
  8
025-DWG
  6
CONTINUOUS
100
AcDbPolyline
 90
        7
 70
   128
 43
0.0
 10
-690.879582
 20
919.810448
 10
-691.160595
 20
919.740508
 10
-691.478356
 20
919.674223
 10
-691.8067
 20
919.617248
 10
-692.155198
 20
919.568125
 10
-692.257019
 20
919.555899
 10
-692.358842
 20
919.544639
  0
LWPOLYLINE
  5
2C4
100
AcDbEntity
  8
035-DWG
  6
CONTINUOUS
100
AcDbPolyline
 90
        6
 70
   128
 43
0.0
 10
-681.614464
 20
941.397083
 10
-680.444363
 20
941.153292
 10
-676.412291
 20
940.262625
 10
-672.411309
 20
939.304245
 10
-668.437793
 20
938.282785
 10
-664.497895
 20
937.205284
  0
LWPOLYLINE
  5
2C5
100
AcDbEntity
  8
025-DWG
  6
CONTINUOUS
100
AcDbPolyline
 90
        5
 70
   128
 43
0.0
 10
-665.277667
 20
939.770846
 10
-668.811963
 20
940.704486
 10
-672.375929
 20
941.593575
 10
-675.972436
 20
942.434806
 10
-679.597383
 20
943.223138
  0
LWPOLYLINE
  5
2C6
100
AcDbEntity
  8
025-DWG
  6
CONTINUOUS
100
AcDbPolyline
 90
        5
 70
   128
 43
0.0
 10
-665.301268
 20
924.934111
 10
-672.749572
 20
923.585487
 10
-677.997656
 20
922.751247
 10
-683.295289
 20
922.005459
 10
-688.924108
 20
921.318291
  0
LWPOLYLINE
  5
2C7
100
AcDbEntity
  8
025-DWG
  6
CONTINUOUS
100
AcDbPolyline
 90
        5
 70
   128
 43
0.0
 10
-688.950528
 20
920.343228
 10
-683.993023
 20
920.946386
 10
-679.06495
 20
921.62983
 10
-672.168791
 20
922.727703
 10
-665.346748
 20
923.977788
  0
LWPOLYLINE
  5
2C8
100
AcDbEntity
  8
025-DWG
  6
CONTINUOUS
100
AcDbPolyline
 90
        5
 70
   128
 43
0.0
 10
-663.80616
 20
937.205284
 10
-663.852131
 20
938.423726
 10
-663.975495
 20
939.504271
 10
-664.182627
 20
940.471149
 10
-664.22601
 20
940.612536
  0
LINE
  5
2C9
100
AcDbEntity
  8
025-DWG
  6
CONTINUOUS
100
AcDbLine
 10
-663.80616
 20
937.205284
 30
0.0
 11
-664.497895
 21
937.205284
 31
0.0
  0
LWPOLYLINE
  5
2CA
100
AcDbEntity
  8
025-DWG
  6
CONTINUOUS
100
AcDbPolyline
 90
        4
 70
   128
 43
0.0
 10
-665.346748
 20
923.977788
 10
-664.698604
 20
923.59746
 10
-663.115907
 20
922.675295
 10
-661.839205
 20
921.938182
  0
LINE
  5
2CB
100
AcDbEntity
  8
025-DWG
  6
CONTINUOUS
100
AcDbLine
 10
-664.497895
 20
925.855842
 30
0.0
 11
-663.80616
 21
925.855842
 31
0.0
  0
LWPOLYLINE
  5
2CC
100
AcDbEntity
  8
025-DWG
  6
CONTINUOUS
100
AcDbPolyline
 90
        5
 70
   128
 43
0.0
 10
-665.346748
 20
923.977788
 10
-664.714036
 20
924.243308
 10
-664.206596
 20
924.705745
 10
-663.896466
 20
925.297337
 10
-663.80616
 20
925.855842
  0
LWPOLYLINE
  5
2CD
100
AcDbEntity
  8
035-DWG
  6
CONTINUOUS
100
AcDbPolyline
 90
        6
 70
   128
 43
0.0
 10
-660.248812
 20
923.766347
 10
-660.340988
 20
923.196988
 10
-660.605879
 20
922.69257
 10
-661.013922
 20
922.293236
 10
-661.571191
 20
922.009384
 10
-661.839205
 20
921.938182
  0
LINE
  5
2CE
100
AcDbEntity
  8
025-DWG
  6
CONTINUOUS
100
AcDbLine
 10
-660.248812
 20
923.766347
 30
0.0
 11
-663.80616
 21
925.855842
 31
0.0
  0
LINE
  5
2CF
100
AcDbEntity
  8
025-DWG
  6
CONTINUOUS
100
AcDbLine
 10
-663.80616
 20
925.855842
 30
0.0
 11
-663.80616
 21
937.205284
 31
0.0
  0
LWPOLYLINE
  5
2D0
100
AcDbEntity
  8
025-DWG
  6
CONTINUOUS
100
AcDbPolyline
 90
        7
 70
   128
 43
0.0
 10
-665.277667
 20
939.770846
 10
-665.056445
 20
939.357401
 10
-664.849353
 20
938.839981
 10
-664.716945
 20
938.408445
 10
-664.60348
 20
937.924043
 10
-664.542705
 20
937.573774
 10
-664.497895
 20
937.205284
  0
LWPOLYLINE
  5
2D1
100
AcDbEntity
  8
025-DWG
  6
CONTINUOUS
100
AcDbPolyline
 90
        9
 70
   128
 43
0.0
 10
-664.22601
 20
940.612536
 10
-664.265197
 20
940.452266
 10
-664.338689
 20
940.297851
 10
-664.443802
 20
940.154934
 10
-664.576694
 20
940.028735
 10
-664.732512
 20
939.923866
 10
-664.905561
 20
939.844157
 10
-665.08952
 20
939.792522
 10
-665.277667
 20
939.770846
  0
LWPOLYLINE
  5
2D2
100
AcDbEntity
  8
025-DWG
  6
CONTINUOUS
100
AcDbPolyline
 90
        9
 70
   128
 43
0.0
 10
-665.301268
 20
924.934111
 10
-665.27584
 20
924.770532
 10
-665.258998
 20
924.611516
 10
-665.251212
 20
924.461497
 10
-665.252699
 20
924.324658
 10
-665.263419
 20
924.204817
 10
-665.283071
 20
924.105316
 10
-665.311108
 20
924.02893
 10
-665.346748
 20
923.977788
  0
LWPOLYLINE
  5
2D3
100
AcDbEntity
  8
025-DWG
  6
CONTINUOUS
100
AcDbPolyline
 90
        6
 70
   128
 43
0.0
 10
-664.497895
 20
925.855842
 10
-664.545517
 20
925.565126
 10
-664.682771
 20
925.307407
 10
-664.893979
 20
925.104999
 10
-665.177878
 20
924.965461
 10
-665.301268
 20
924.934111
  0
LINE
  5
2D4
100
AcDbEntity
  8
035-DWG
  6
CONTINUOUS
100
AcDbLine
 10
-664.497895
 20
937.205284
 30
0.0
 11
-664.497895
 21
925.855842
 31
0.0
  0
LWPOLYLINE
  5
2D5
100
AcDbEntity
  8
025-DWG
  6
CONTINUOUS
100
AcDbPolyline
 90
        9
 70
   128
 43
0.0
 10
-688.950528
 20
920.343228
 10
-688.928379
 20
920.390531
 10
-688.910994
 20
920.465216
 10
-688.898886
 20
920.565079
 10
-688.892412
 20
920.687174
 10
-688.891765
 20
920.827896
 10
-688.896962
 20
920.983092
 10
-688.90785
 20
921.148181
 10
-688.924108
 20
921.318291
  0
LWPOLYLINE
  5
2D6
100
AcDbEntity
  8
025-DWG
  6
CONTINUOUS
100
AcDbPolyline
 90
        6
 70
   128
 43
0.0
 10
-680.473846
 20
944.06547
 10
-680.704924
 20
943.456539
 10
-680.966449
 20
942.860681
 10
-681.242682
 20
942.246778
 10
-681.609774
 20
941.408126
 10
-681.614464
 20
941.397083
  0
LWPOLYLINE
  5
2D7
100
AcDbEntity
  8
025-DWG
  6
CONTINUOUS
100
AcDbPolyline
 90
        6
 70
   128
 43
0.0
 10
-681.614464
 20
941.397083
 10
-681.606754
 20
941.403695
 10
-681.20899
 20
941.740188
 10
-680.366841
 20
942.447357
 10
-679.87109
 20
942.899075
 10
-679.597383
 20
943.223138
  0
LWPOLYLINE
  5
2D8
100
AcDbEntity
  8
025-DWG
  6
CONTINUOUS
100
AcDbPolyline
 90
        9
 70
   128
 43
0.0
 10
-679.597383
 20
943.223138
 10
-679.753564
 20
943.269461
 10
-679.90376
 20
943.337583
 10
-680.043858
 20
943.425639
 10
-680.170021
 20
943.531218
 10
-680.278795
 20
943.651428
 10
-680.367201
 20
943.782977
 10
-680.432817
 20
943.922263
 10
-680.473846
 20
944.06547
  0
LWPOLYLINE
  5
2D9
100
AcDbEntity
  8
025-DWG
  6
CONTINUOUS
100
AcDbPolyline
 90
        5
 70
   128
 43
0.0
 10
-679.597383
 20
943.223138
 10
-679.547723
 20
943.317759
 10
-679.510872
 20
943.415214
 10
-679.486733
 20
943.516019
 10
-679.475824
 20
943.618681
  0
LWPOLYLINE
  5
2DA
100
AcDbEntity
  8
025-DWG
  6
CONTINUOUS
100
AcDbPolyline
 90
        5
 70
   128
 43
0.0
 10
-680.412993
 20
944.461005
 10
-680.418192
 20
944.361425
 10
-680.429813
 20
944.262292
 10
-680.448256
 20
944.163346
 10
-680.473846
 20
944.06547
  0
LWPOLYLINE
  5
2DB
100
AcDbEntity
  8
025-DWG
  6
CONTINUOUS
100
AcDbPolyline
 90
        9
 70
   128
 43
0.0
 10
-679.475824
 20
943.618681
 10
-679.660025
 20
943.645329
 10
-679.835644
 20
943.700351
 10
-679.996574
 20
943.781833
 10
-680.137215
 20
943.88694
 10
-680.252676
 20
944.012016
 10
-680.338939
 20
944.15271
 10
-680.393006
 20
944.304129
 10
-680.412993
 20
944.461005
  0
LINE
  5
2DC
100
AcDbEntity
  8
035-DWG
  6
CONTINUOUS
100
AcDbLine
 10
-681.614464
 20
955.748904
 30
0.0
 11
-681.614464
 21
941.397083
 31
0.0
  0
LWPOLYLINE
  5
2DD
100
AcDbEntity
  8
035-DWG
  6
CONTINUOUS
100
AcDbPolyline
 90
        6
 70
   128
 43
0.0
 10
-685.276696
 20
954.891109
 10
-684.46892
 20
954.816925
 10
-683.637965
 20
954.882391
 10
-682.852652
 20
955.084472
 10
-682.091531
 20
955.433072
 10
-681.614464
 20
955.748904
  0
LWPOLYLINE
  5
2DE
100
AcDbEntity
  8
025-DWG
  6
CONTINUOUS
100
AcDbPolyline
 90
        9
 70
   128
 43
0.0
 10
-689.703279
 20
921.309564
 10
-689.659299
 20
921.126391
 10
-689.595055
 20
920.950046
 10
-689.512835
 20
920.786803
 10
-689.415564
 20
920.642469
 10
-689.306701
 20
920.522181
 10
-689.190122
 20
920.430217
 10
-689.069972
 20
920.36985
 10
-688.950528
 20
920.343228
  0
LWPOLYLINE
  5
2DF
100
AcDbEntity
  8
025-DWG
  6
CONTINUOUS
100
AcDbPolyline
 90
        9
 70
   128
 43
0.0
 10
-689.703279
 20
921.309564
 10
-689.618524
 20
921.310439
 10
-689.528125
 20
921.311398
 10
-689.433045
 20
921.312431
 10
-689.3343
 20
921.313526
 10
-689.232945
 20
921.314672
 10
-689.130062
 20
921.315857
 10
-689.026749
 20
921.317067
 10
-688.924108
 20
921.318291
  0
LWPOLYLINE
  5
2E0
100
AcDbEntity
  8
025-DWG
  6
CONTINUOUS
100
AcDbPolyline
 90
        3
 70
   128
 43
0.0
 10
-690.879582
 20
919.810448
 10
-689.336068
 20
920.235428
 10
-688.950528
 20
920.343228
  0
LINE
  5
2E1
100
AcDbEntity
  8
025-DWG
  6
CONTINUOUS
100
AcDbLine
 10
-688.924108
 20
921.318291
 30
0.0
 11
-689.019972
 21
929.472417
 31
0.0
  0
LWPOLYLINE
  5
2E2
100
AcDbEntity
  8
025-DWG
  6
CONTINUOUS
100
AcDbPolyline
 90
        9
 70
   128
 43
0.0
 10
-674.301257
 20
963.680293
 10
-674.345579
 20
963.494995
 10
-674.395585
 20
963.316439
 10
-674.449453
 20
963.151124
 10
-674.505225
 20
963.005066
 10
-674.56087
 20
962.88358
 10
-674.614363
 20
962.791086
 10
-674.663759
 20
962.730951
 10
-674.707259
 20
962.705362
  0
LWPOLYLINE
  5
2E3
100
AcDbEntity
  8
025-DWG
  6
CONTINUOUS
100
AcDbPolyline
 90
        5
 70
   128
 43
0.0
 10
-674.707259
 20
962.705362
 10
-674.230202
 20
962.587808
 10
-673.844256
 20
962.475553
 10
-673.594927
 20
962.382289
 10
-673.545769
 20
962.356119
  0
LWPOLYLINE
  5
2E4
100
AcDbEntity
  8
025-DWG
  6
CONTINUOUS
100
AcDbPolyline
 90
        6
 70
   128
 43
0.0
 10
-672.817583
 20
961.896447
 10
-674.495091
 20
962.293856
 10
-676.179751
 20
962.678323
 10
-677.871724
 20
963.049818
 10
-679.570158
 20
963.408094
 10
-680.382818
 20
963.574366
  0
LWPOLYLINE
  5
2E5
100
AcDbEntity
  8
025-DWG
  6
CONTINUOUS
100
AcDbPolyline
 90
        5
 70
   128
 43
0.0
 10
-679.189132
 20
962.92318
 10
-677.557322
 20
962.573826
 10
-675.931284
 20
962.212042
 10
-674.107006
 20
961.78977
 10
-672.290871
 20
961.35201
  0
LINE
  5
2E6
100
AcDbEntity
  8
025-DWG
  6
CONTINUOUS
100
AcDbLine
 10
-674.301257
 20
969.538779
 30
0.0
 11
-674.301257
 21
963.680293
 31
0.0
  0
LWPOLYLINE
  5
2E7
100
AcDbEntity
  8
025-DWG
  6
CONTINUOUS
100
AcDbPolyline
 90
        3
 70
   128
 43
0.0
 10
-672.357107
 20
969.19469
 10
-666.284255
 20
965.331898
 10
-660.248812
 20
961.326258
  0
LWPOLYLINE
  5
2E8
100
AcDbEntity
  8
035-DWG
  6
CONTINUOUS
100
AcDbPolyline
 90
        3
 70
   128
 43
0.0
 10
-672.807894
 20
970.044329
 10
-666.681744
 20
966.147156
 10
-660.748063
 20
962.207582
  0
LINE
  5
2E9
100
AcDbEntity
  8
025-DWG
  6
CONTINUOUS
100
AcDbLine
 10
-672.357107
 20
963.329991
 30
0.0
 11
-672.357107
 21
969.19469
 31
0.0
  0
LWPOLYLINE
  5
2EA
100
AcDbEntity
  8
035-DWG
  6
CONTINUOUS
100
AcDbPolyline
 90
        4
 70
   128
 43
0.0
 10
-660.748174
 20
962.207471
 10
-660.434738
 20
961.901273
 10
-660.288024
 20
961.595867
 10
-660.248812
 20
961.326258
  0
LINE
  5
2EB
100
AcDbEntity
  8
025-DWG
  6
CONTINUOUS
100
AcDbLine
 10
-671.625786
 20
962.869641
 30
0.0
 11
-672.357107
 21
963.329991
 31
0.0
  0
LWPOLYLINE
  5
2EC
100
AcDbEntity
  8
025-DWG
  6
CONTINUOUS
100
AcDbPolyline
 90
        7
 70
   128
 43
0.0
 10
-672.817583
 20
961.896447
 10
-672.708067
 20
961.833127
 10
-672.598045
 20
961.743124
 10
-672.486703
 20
961.625508
 10
-672.376396
 20
961.482234
 10
-672.333437
 20
961.418977
 10
-672.290871
 20
961.35201
  0
LWPOLYLINE
  5
2ED
100
AcDbEntity
  8
025-DWG
  6
CONTINUOUS
100
AcDbPolyline
 90
        9
 70
   128
 43
0.0
 10
-671.625786
 20
962.869641
 10
-671.655362
 20
962.652872
 10
-671.730834
 20
962.446591
 10
-671.848548
 20
962.260778
 10
-672.002811
 20
962.104424
 10
-672.186158
 20
961.985094
 10
-672.389718
 20
961.908561
 10
-672.603643
 20
961.878527
 10
-672.817583
 20
961.896447
  0
LWPOLYLINE
  5
2EE
100
AcDbEntity
  8
025-DWG
  6
CONTINUOUS
100
AcDbPolyline
 90
        9
 70
   128
 43
0.0
 10
-671.243139
 20
962.193938
 10
-671.28216
 20
962.033997
 10
-671.355319
 20
961.879871
 10
-671.459958
 20
961.737162
 10
-671.592272
 20
961.611056
 10
-671.747451
 20
961.50614
 10
-671.919856
 20
961.426226
 10
-672.103217
 20
961.374219
 10
-672.290871
 20
961.35201
  0
LWPOLYLINE
  5
2EF
100
AcDbEntity
  8
025-DWG
  6
CONTINUOUS
100
AcDbPolyline
 90
        7
 70
   128
 43
0.0
 10
-671.243139
 20
962.193938
 10
-671.310291
 20
962.382257
 10
-671.380882
 20
962.544689
 10
-671.455584
 20
962.681157
 10
-671.532995
 20
962.787235
 10
-671.579106
 20
962.834169
 10
-671.625786
 20
962.869641
  0
LWPOLYLINE
  5
2F0
100
AcDbEntity
  8
025-DWG
  6
CONTINUOUS
100
AcDbPolyline
 90
        9
 70
   128
 43
0.0
 10
-672.357107
 20
963.329991
 10
-672.386558
 20
963.113581
 10
-672.461748
 20
962.907606
 10
-672.579051
 20
962.721994
 10
-672.732813
 20
962.565695
 10
-672.915619
 20
962.446244
 10
-673.118657
 20
962.3694
 10
-673.332138
 20
962.338867
 10
-673.545769
 20
962.356119
  0
LINE
  5
2F1
100
AcDbEntity
  8
025-DWG
  6
CONTINUOUS
100
AcDbLine
 10
-673.545769
 20
962.356119
 30
0.0
 11
-672.817583
 21
961.896447
 31
0.0
  0
LWPOLYLINE
  5
2F2
100
AcDbEntity
  8
025-DWG
  6
CONTINUOUS
100
AcDbPolyline
 90
        5
 70
   128
 43
0.0
 10
-672.357107
 20
963.329991
 10
-672.667956
 20
963.411261
 10
-673.218344
 20
963.515315
 10
-673.95089
 20
963.630695
 10
-674.301257
 20
963.680293
  0
LWPOLYLINE
  5
2F3
100
AcDbEntity
  8
025-DWG
  6
CONTINUOUS
100
AcDbPolyline
 90
        9
 70
   128
 43
0.0
 10
-674.301151
 20
970.514725
 10
-674.263254
 20
970.503427
 10
-674.235035
 20
970.452987
 10
-674.217638
 20
970.365451
 10
-674.211769
 20
970.24437
 10
-674.217667
 20
970.094658
 10
-674.235092
 20
969.922391
 10
-674.263338
 20
969.734557
 10
-674.301257
 20
969.538779
  0
LWPOLYLINE
  5
2F4
100
AcDbEntity
  8
025-DWG
  6
CONTINUOUS
100
AcDbPolyline
 90
        7
 70
   128
 43
0.0
 10
-672.800136
 20
970.039462
 10
-672.681622
 20
969.950497
 10
-672.565842
 20
969.828447
 10
-672.473115
 20
969.687408
 10
-672.40622
 20
969.531607
 10
-672.36716
 20
969.36571
 10
-672.357107
 20
969.19469
  0
LWPOLYLINE
  5
2F5
100
AcDbEntity
  8
025-DWG
  6
CONTINUOUS
100
AcDbPolyline
 90
        5
 70
   128
 43
0.0
 10
-674.301257
 20
969.538779
 10
-673.51265
 20
969.424874
 10
-672.87151
 20
969.315595
 10
-672.451864
 20
969.224066
 10
-672.357107
 20
969.19469
  0
LWPOLYLINE
  5
2F6
100
AcDbEntity
  8
035-DWG
  6
CONTINUOUS
100
AcDbPolyline
 90
        7
 70
   128
 43
0.0
 10
-674.285956
 20
970.514204
 10
-674.180928
 20
970.49142
 10
-673.782229
 20
970.394062
 10
-673.428148
 20
970.29548
 10
-673.119096
 20
970.192417
 10
-672.933839
 20
970.11353
 10
-672.801451
 20
970.037062
  0
LINE
  5
2F7
100
AcDbEntity
  8
025-DWG
  6
CONTINUOUS
100
AcDbLine
 10
-687.178092
 20
964.065613
 30
0.0
 11
-687.140395
 21
964.068861
 31
0.0
  0
LWPOLYLINE
  5
2F8
100
AcDbEntity
  8
025-DWG
  6
CONTINUOUS
100
AcDbPolyline
 90
        3
 70
   128
 43
0.0
 10
-684.211292
 20
963.388812
 10
-683.837495
 20
963.221944
 10
-683.413712
 20
963.114769
  0
LINE
  5
2F9
100
AcDbEntity
  8
025-DWG
  6
CONTINUOUS
100
AcDbLine
 10
-682.723615
 20
961.7478
 30
0.0
 11
-684.436053
 21
963.474072
 31
0.0
  0
LWPOLYLINE
  5
2FA
100
AcDbEntity
  8
025-DWG
  6
CONTINUOUS
100
AcDbPolyline
 90
        3
 70
   128
 43
0.0
 10
-683.002296
 20
958.87613
 10
-682.97361
 20
959.064948
 10
-682.977747
 20
959.201614
  0
LWPOLYLINE
  5
2FB
100
AcDbEntity
  8
025-DWG
  6
CONTINUOUS
100
AcDbPolyline
 90
        6
 70
   128
 43
0.0
 10
-683.642973
 20
957.735612
 10
-683.529765
 20
957.82711
 10
-683.370562
 20
958.002583
 10
-683.194572
 20
958.276686
 10
-683.046039
 20
958.653213
 10
-683.008526
 20
958.878765
  0
LWPOLYLINE
  5
2FC
100
AcDbEntity
  8
025-DWG
  6
CONTINUOUS
100
AcDbPolyline
 90
        8
 70
   128
 43
0.0
 10
-682.971779
 20
959.203033
 10
-682.974853
 20
959.426513
 10
-682.994852
 20
960.097922
 10
-683.024615
 20
960.729707
 10
-683.06236
 20
961.294758
 10
-683.105979
 20
961.777999
 10
-683.150882
 20
962.152604
 10
-683.15566
 20
962.183335
  0
LWPOLYLINE
  5
2FD
100
AcDbEntity
  8
025-DWG
  6
CONTINUOUS
100
AcDbPolyline
 90
        8
 70
   128
 43
0.0
 10
-683.413712
 20
963.114769
 10
-683.557518
 20
963.20523
 10
-683.824299
 20
963.313223
 10
-684.207335
 20
963.435365
 10
-684.694207
 20
963.567503
 10
-685.276721
 20
963.706345
 10
-685.934609
 20
963.846439
 10
-687.140395
 20
964.068861
  0
LWPOLYLINE
  5
2FE
100
AcDbEntity
  8
025-DWG
  6
CONTINUOUS
100
AcDbPolyline
 90
        5
 70
   128
 43
0.0
 10
-685.295965
 20
957.361843
 10
-684.919557
 20
957.316944
 10
-684.441375
 20
957.36532
 10
-683.994613
 20
957.516515
 10
-683.639803
 20
957.738417
  0
LWPOLYLINE
  5
2FF
100
AcDbEntity
  8
025-DWG
  6
CONTINUOUS
100
AcDbPolyline
 90
       10
 70
   128
 43
0.0
 10
-684.196982
 20
963.395632
 10
-684.200407
 20
963.396842
 10
-684.279403
 20
963.424849
 10
-684.451571
 20
963.478949
 10
-684.724526
 20
963.555473
 10
-685.106451
 20
963.651804
 10
-685.579408
 20
963.759796
 10
-686.133204
 20
963.87471
 10
-686.741272
 20
963.989511
 10
-687.177608
 20
964.06426
  0
LWPOLYLINE
  5
300
100
AcDbEntity
  8
025-DWG
  6
CONTINUOUS
100
AcDbPolyline
 90
        6
 70
   128
 43
0.0
 10
-680.382818
 20
963.574366
 10
-680.379472
 20
963.572751
 10
-680.241745
 20
963.492914
 10
-680.109789
 20
963.389067
 10
-679.984771
 20
963.259192
 10
-679.870082
 20
963.10121
  0
LWPOLYLINE
  5
301
100
AcDbEntity
  8
025-DWG
  6
CONTINUOUS
100
AcDbPolyline
 90
        6
 70
   128
 43
0.0
 10
-679.189132
 20
962.92318
 10
-679.458175
 20
963.137394
 10
-679.747356
 20
963.315706
 10
-680.055943
 20
963.461489
 10
-680.376218
 20
963.572477
 10
-680.382818
 20
963.574366
  0
LINE
  5
302
100
AcDbEntity
  8
025-DWG
  6
CONTINUOUS
100
AcDbLine
 10
-680.382818
 20
963.574366
 30
0.0
 11
-681.197131
 21
961.014405
 31
0.0
  0
LWPOLYLINE
  5
303
100
AcDbEntity
  8
025-DWG
  6
CONTINUOUS
100
AcDbPolyline
 90
        5
 70
   128
 43
0.0
 10
-681.233571
 20
960.965135
 10
-681.27177
 20
960.991346
 10
-681.309783
 20
961.014552
 10
-681.347642
 20
961.03471
 10
-681.385241
 20
961.051696
  0
LWPOLYLINE
  5
304
100
AcDbEntity
  8
025-DWG
  6
CONTINUOUS
100
AcDbPolyline
 90
        5
 70
   128
 43
0.0
 10
-681.197131
 20
961.014405
 10
-681.205916
 20
961.006747
 10
-681.214917
 20
960.995994
 10
-681.224146
 20
960.982112
 10
-681.233571
 20
960.965135
  0
LWPOLYLINE
  5
305
100
AcDbEntity
  8
025-DWG
  6
CONTINUOUS
100
AcDbPolyline
 90
        7
 70
   128
 43
0.0
 10
-679.870082
 20
963.10121
 10
-679.78232
 20
962.930536
 10
-679.724506
 20
962.759786
 10
-679.689749
 20
962.588563
 10
-679.674738
 20
962.418148
 10
-679.674083
 20
962.325986
 10
-679.678439
 20
962.234162
  0
LWPOLYLINE
  5
306
100
AcDbEntity
  8
025-DWG
  6
CONTINUOUS
100
AcDbPolyline
 90
        9
 70
   128
 43
0.0
 10
-679.189132
 20
962.92318
 10
-679.288567
 20
962.911093
 10
-679.386091
 20
962.909063
 10
-679.480558
 20
962.917114
 10
-679.570855
 20
962.935151
 10
-679.65592
 20
962.962961
 10
-679.73475
 20
963.000218
 10
-679.806419
 20
963.046483
 10
-679.870082
 20
963.10121
  0
LINE
  5
307
100
AcDbEntity
  8
025-DWG
  6
CONTINUOUS
100
AcDbLine
 10
-681.197131
 20
961.014405
 30
0.0
 11
-681.385241
 21
961.051696
 31
0.0
  0
LWPOLYLINE
  5
308
100
AcDbEntity
  8
025-DWG
  6
CONTINUOUS
100
AcDbPolyline
 90
        9
 70
   128
 43
0.0
 10
-678.74213
 20
961.391883
 10
-678.926201
 20
961.418642
 10
-679.101676
 20
961.473736
 10
-679.262457
 20
961.555252
 10
-679.402958
 20
961.660357
 10
-679.518297
 20
961.785398
 10
-679.604467
 20
961.926033
 10
-679.658473
 20
962.077374
 10
-679.678439
 20
962.234162
  0
LWPOLYLINE
  5
309
100
AcDbEntity
  8
025-DWG
  6
CONTINUOUS
100
AcDbPolyline
 90
        5
 70
   128
 43
0.0
 10
-678.74213
 20
961.391883
 10
-678.790005
 20
962.009585
 10
-679.01075
 20
962.638571
 10
-679.092622
 20
962.781628
 10
-679.189132
 20
962.92318
  0
LINE
  5
30A
100
AcDbEntity
  8
025-DWG
  6
CONTINUOUS
100
AcDbLine
 10
-680.412993
 20
958.457138
 30
0.0
 11
-681.160636
 21
958.457138
 31
0.0
  0
LWPOLYLINE
  5
30B
100
AcDbEntity
  8
025-DWG
  6
CONTINUOUS
100
AcDbPolyline
 90
        5
 70
   128
 43
0.0
 10
-681.160636
 20
958.457138
 10
-681.152387
 20
958.557789
 10
-681.146778
 20
958.658607
 10
-681.143736
 20
958.759766
 10
-681.143227
 20
958.86072
  0
LWPOLYLINE
  5
30C
100
AcDbEntity
  8
025-DWG
  6
CONTINUOUS
100
AcDbPolyline
 90
        6
 70
   128
 43
0.0
 10
-680.412993
 20
958.457138
 10
-680.41065
 20
958.9767
 10
-680.403972
 20
959.437611
 10
-680.393529
 20
959.796204
 10
-680.380506
 20
960.002233
 10
-680.375045
 20
960.034042
  0
LWPOLYLINE
  5
30D
100
AcDbEntity
  8
025-DWG
  6
CONTINUOUS
100
AcDbPolyline
 90
        5
 70
   128
 43
0.0
 10
-681.143227
 20
958.86072
 10
-681.155905
 20
959.679648
 10
-681.180335
 20
960.363004
 10
-681.214559
 20
960.833929
 10
-681.233571
 20
960.965135
  0
LINE
  5
30E
100
AcDbEntity
  8
025-DWG
  6
CONTINUOUS
100
AcDbLine
 10
-680.375045
 20
960.034042
 30
0.0
 11
-679.678439
 21
962.234162
 31
0.0
  0
LWPOLYLINE
  5
30F
100
AcDbEntity
  8
025-DWG
  6
CONTINUOUS
100
AcDbPolyline
 90
        9
 70
   128
 43
0.0
 10
-680.375045
 20
960.034042
 10
-680.390471
 20
960.206338
 10
-680.435537
 20
960.373445
 10
-680.508888
 20
960.530331
 10
-680.608313
 20
960.67227
 10
-680.730818
 20
960.794989
 10
-680.872714
 20
960.894792
 10
-681.029728
 20
960.968672
 10
-681.197131
 20
961.014405
  0
LWPOLYLINE
  5
310
100
AcDbEntity
  8
025-DWG
  6
CONTINUOUS
100
AcDbPolyline
 90
        5
 70
   128
 43
0.0
 10
-682.632157
 20
961.621964
 10
-682.451722
 20
961.46555
 10
-682.080857
 20
961.226744
 10
-681.670337
 20
961.058103
 10
-681.233571
 20
960.965135
  0
LWPOLYLINE
  5
311
100
AcDbEntity
  8
025-DWG
  6
CONTINUOUS
100
AcDbPolyline
 90
        5
 70
   128
 43
0.0
 10
-682.723211
 20
961.74739
 10
-682.554396
 20
961.591599
 10
-682.199187
 20
961.343507
 10
-681.805441
 20
961.16168
 10
-681.385241
 20
961.051696
  0
LINE
  5
312
100
AcDbEntity
  8
025-DWG
  6
CONTINUOUS
100
AcDbLine
 10
-681.385241
 20
961.051696
 30
0.0
 11
-683.413712
 21
963.114769
 31
0.0
  0
LWPOLYLINE
  5
313
100
AcDbEntity
  8
025-DWG
  6
CONTINUOUS
100
AcDbPolyline
 90
        9
 70
   128
 43
0.0
 10
-682.995076
 20
958.876988
 10
-682.991951
 20
958.869539
 10
-682.929393
 20
958.839201
 10
-682.789231
 20
958.796502
 10
-682.575998
 20
958.742824
 10
-682.296595
 20
958.679904
 10
-681.960059
 20
958.609777
 10
-681.577278
 20
958.534712
 10
-681.160636
 20
958.457138
  0
LWPOLYLINE
  5
314
100
AcDbEntity
  8
025-DWG
  6
CONTINUOUS
100
AcDbPolyline
 90
        9
 70
   128
 43
0.0
 10
-682.970606
 20
959.203073
 10
-682.96422
 20
959.177869
 10
-682.894767
 20
959.111811
 10
-682.75107
 20
959.049865
 10
-682.537528
 20
958.993928
 10
-682.260684
 20
958.945712
 10
-681.929018
 20
958.906695
 10
-681.55269
 20
958.878072
 10
-681.143227
 20
958.86072
  0
LINE
  5
315
100
AcDbEntity
  8
035-DWG
100
AcDbLine
 10
-524.444363
 20
923.255876
 30
0.0
 11
-524.444363
 21
837.7
 31
0.0
  0
LINE
  5
316
100
AcDbEntity
  8
025-DWG
100
AcDbLine
 10
-531.444363
 20
923.255876
 30
0.0
 11
-531.444363
 21
837.2
 31
0.0
  0
LINE
  5
317
100
AcDbEntity
  8
035-DWG
100
AcDbLine
 10
-539.644363
 20
857.169091
 30
0.0
 11
-539.644363
 21
969.593525
 31
0.0
  0
ARC
  5
318
100
AcDbEntity
  8
035-DWG
100
AcDbCircle
 10
-553.944363
 20
852.369091
 30
0.0
 40
2.0
100
AcDbArc
 50
90.0
 51
156.421822
  0
ARC
  5
319
100
AcDbEntity
  8
035-DWG
100
AcDbCircle
 10
-553.543143
 20
850.569091
 30
0.0
 40
3.8
100
AcDbArc
 50
57.363102
 51
90.0
  0
ARC
  5
31A
100
AcDbEntity
  8
035-DWG
100
AcDbCircle
 10
-542.444363
 20
857.169091
 30
0.0
 40
2.8
100
AcDbArc
 50
270.0
 51
360.0
  0
ARC
  5
31B
100
AcDbEntity
  8
035-DWG
100
AcDbCircle
 10
-545.345583
 20
850.569091
 30
0.0
 40
3.8
100
AcDbArc
 50
90.0
 51
122.636898
  0
ARC
  5
31C
100
AcDbEntity
  8
035-DWG
100
AcDbCircle
 10
-538.744363
 20
849.869091
 30
0.0
 40
3.3
100
AcDbArc
 50
0.0
 51
90.0
  0
LINE
  5
31D
100
AcDbEntity
  8
035-DWG
100
AcDbLine
 10
-535.444363
 20
849.869091
 30
0.0
 11
-535.444363
 21
838.169091
 31
0.0
  0
ARC
  5
31E
100
AcDbEntity
  8
035-DWG
100
AcDbCircle
 10
-549.444363
 20
856.969091
 30
0.0
 40
3.8
100
AcDbArc
 50
237.363102
 51
302.636898
  0
LINE
  5
31F
100
AcDbEntity
  8
035-DWG
100
AcDbLine
 10
-524.444363
 20
923.255876
 30
0.0
 11
-539.644363
 21
923.255876
 31
0.0
  0
LINE
  5
320
100
AcDbEntity
  8
035-DWG
100
AcDbLine
 10
-539.644363
 20
975.355427
 30
0.0
 11
-539.644363
 21
994.669091
 31
0.0
  0
LINE
  5
321
100
AcDbEntity
  8
035-DWG
100
AcDbLine
 10
-540.144363
 20
975.355427
 30
0.0
 11
-539.644363
 21
975.355427
 31
0.0
  0
LINE
  5
322
100
AcDbEntity
  8
035-DWG
100
AcDbLine
 10
-539.644363
 20
968.969091
 30
0.0
 11
-539.644363
 21
969.593525
 31
0.0
  0
LINE
  5
323
100
AcDbEntity
  8
035-DWG
100
AcDbLine
 10
-539.644363
 20
969.593525
 30
0.0
 11
-539.644363
 21
970.355427
 31
0.0
  0
LINE
  5
324
100
AcDbEntity
  8
035-DWG
100
AcDbLine
 10
-540.144363
 20
970.355427
 30
0.0
 11
-539.644363
 21
970.355427
 31
0.0
  0
ARC
  5
325
100
AcDbEntity
  8
035-DWG
100
AcDbCircle
 10
-540.144363
 20
972.855427
 30
0.0
 40
2.5
100
AcDbArc
 50
90.0
 51
270.0
  0
LINE
  5
326
100
AcDbEntity
  8
035-DWG
100
AcDbLine
 10
-529.494363
 20
994.669091
 30
0.0
 11
-529.494363
 21
1000.669091
 31
0.0
  0
LINE
  5
327
100
AcDbEntity
  8
035-DWG
100
AcDbLine
 10
-603.269846
 20
1041.669091
 30
0.0
 11
-689.144363
 21
1041.669091
 31
0.0
  0
LINE
  5
328
100
AcDbEntity
  8
025-DWG
100
AcDbLine
 10
-689.144363
 20
1041.669091
 30
0.0
 11
-697.978296
 21
1041.669091
 31
0.0
  0
LINE
  5
329
100
AcDbEntity
  8
025-DWG
100
AcDbLine
 10
-691.309427
 20
1045.419091
 30
0.0
 11
-699.12089
 21
1045.419091
 31
0.0
  0
LINE
  5
32A
100
AcDbEntity
  8
035-DWG
100
AcDbLine
 10
-685.88988
 20
1033.324707
 30
0.0
 11
-695.025375
 21
1033.213147
 31
0.0
  0
LINE
  5
32B
100
AcDbEntity
  8
025-DWG
100
AcDbLine
 10
-681.610125
 20
1020.463341
 30
0.0
 11
-695.040972
 21
1020.137141
 31
0.0
  0
LINE
  5
32C
100
AcDbEntity
  8
035-DWG
100
AcDbLine
 10
-681.610125
 20
1019.864669
 30
0.0
 11
-695.576459
 21
1019.55901
 31
0.0
  0
LINE
  5
32D
100
AcDbEntity
  8
035-DWG
100
AcDbLine
 10
-688.855688
 20
1049.669091
 30
0.0
 11
-700.919806
 21
1049.669091
 31
0.0
  0
LINE
  5
32E
100
AcDbEntity
  8
035-DWG
100
AcDbLine
 10
-744.710345
 20
1048.889785
 30
0.0
 11
-749.378954
 21
1033.567378
 31
0.0
  0
LINE
  5
32F
100
AcDbEntity
  8
025-DWG
100
AcDbLine
 10
-743.610209
 20
1034.007245
 30
0.0
 11
-743.562446
 21
1049.74003
 31
0.0
  0
LINE
  5
330
100
AcDbEntity
  8
025-DWG
100
AcDbLine
 10
-744.738218
 20
1033.216629
 30
0.0
 11
-744.710345
 21
1048.889785
 31
0.0
  0
LINE
  5
331
100
AcDbEntity
  8
035-DWG
100
AcDbLine
 10
-700.178381
 20
1048.889785
 30
0.0
 11
-695.509772
 21
1033.567378
 31
0.0
  0
LINE
  5
332
100
AcDbEntity
  8
025-DWG
100
AcDbLine
 10
-700.150508
 20
1033.216629
 30
0.0
 11
-700.178381
 21
1048.889785
 31
0.0
  0
LINE
  5
333
100
AcDbEntity
  8
025-DWG
100
AcDbLine
 10
-701.278517
 20
1034.007245
 30
0.0
 11
-701.32628
 21
1049.74003
 31
0.0
  0
LINE
  5
334
100
AcDbEntity
  8
035-DWG
100
AcDbLine
 10
-753.5793
 20
1045.419091
 30
0.0
 11
-756.033038
 21
1049.669091
 31
0.0
  0
LINE
  5
335
100
AcDbEntity
  8
025-DWG
100
AcDbLine
 10
-701.278517
 20
1034.007245
 30
0.0
 11
-743.610209
 21
1034.007245
 31
0.0
  0
LINE
  5
336
100
AcDbEntity
  8
035-DWG
100
AcDbLine
 10
-701.795607
 20
1033.424228
 30
0.0
 11
-743.093119
 21
1033.424228
 31
0.0
  0
LINE
  5
337
100
AcDbEntity
  8
035-DWG
100
AcDbLine
 10
-758.998846
 20
1033.324707
 30
0.0
 11
-749.863351
 21
1033.213147
 31
0.0
  0
LINE
  5
338
100
AcDbEntity
  8
025-DWG
100
AcDbLine
 10
-746.91043
 20
1041.669091
 30
0.0
 11
-755.744363
 21
1041.669091
 31
0.0
  0
LINE
  5
339
100
AcDbEntity
  8
025-DWG
100
AcDbLine
 10
-745.767837
 20
1045.419091
 30
0.0
 11
-753.5793
 21
1045.419091
 31
0.0
  0
LINE
  5
33A
100
AcDbEntity
  8
025-DWG
100
AcDbLine
 10
-763.278601
 20
1020.463341
 30
0.0
 11
-749.847754
 21
1020.137141
 31
0.0
  0
LINE
  5
33B
100
AcDbEntity
  8
035-DWG
100
AcDbLine
 10
-763.278601
 20
1019.864669
 30
0.0
 11
-749.312267
 21
1019.55901
 31
0.0
  0
LINE
  5
33C
100
AcDbEntity
  8
025-DWG
100
AcDbLine
 10
-749.36561
 20
1020.466417
 30
0.0
 11
-744.738218
 21
1033.216629
 31
0.0
  0
LINE
  5
33D
100
AcDbEntity
  8
035-DWG
100
AcDbLine
 10
-748.15713
 20
1020.351749
 30
0.0
 11
-743.563486
 21
1033.0938
 31
0.0
  0
LINE
  5
33E
100
AcDbEntity
  8
025-DWG
100
AcDbLine
 10
-749.36561
 20
1020.466417
 30
0.0
 11
-749.378954
 21
1033.567378
 31
0.0
  0
LINE
  5
33F
100
AcDbEntity
  8
025-DWG
100
AcDbLine
 10
-749.847754
 20
1020.137141
 30
0.0
 11
-749.863351
 21
1033.213147
 31
0.0
  0
ARC
  5
340
100
AcDbEntity
  8
035-DWG
100
AcDbCircle
 10
-749.857246
 20
1033.713109
 30
0.0
 40
0.5
100
AcDbArc
 50
269.300356
 51
343.05446
  0
ARC
  5
341
100
AcDbEntity
  8
035-DWG
100
AcDbCircle
 10
-749.835614
 20
1020.636993
 30
0.0
 40
0.5
100
AcDbArc
 50
268.608709
 51
340.052817
  0
ARC
  5
342
100
AcDbEntity
  8
035-DWG
100
AcDbCircle
 10
-749.286011
 20
1020.758723
 30
0.0
 40
1.2
100
AcDbArc
 50
268.746259
 51
340.17523
  0
ARC
  5
343
100
AcDbEntity
  8
025-DWG
100
AcDbCircle
 10
-743.610209
 20
1032.807245
 30
0.0
 40
1.2
100
AcDbArc
 50
90.0
 51
160.052817
  0
ARC
  5
344
100
AcDbEntity
  8
035-DWG
100
AcDbCircle
 10
-743.093119
 20
1032.924228
 30
0.0
 40
0.5
100
AcDbArc
 50
90.0
 51
160.17523
  0
LINE
  5
345
100
AcDbEntity
  8
035-DWG
100
AcDbLine
 10
-763.278601
 20
1019.864669
 30
0.0
 11
-763.278601
 21
1020.463341
 31
0.0
  0
ARC
  5
346
100
AcDbEntity
  8
035-DWG
100
AcDbCircle
 10
-755.744363
 20
1044.169091
 30
0.0
 40
2.5
100
AcDbArc
 50
270.0
 51
30.0
  0
ARC
  5
347
100
AcDbEntity
  8
035-DWG
100
AcDbCircle
 10
-744.862261
 20
1021.47786
 30
0.0
 40
18.444262
100
AcDbArc
 50
140.036069
 51
183.153123
  0
LINE
  5
348
100
AcDbEntity
  8
025-DWG
100
AcDbLine
 10
-695.523116
 20
1020.466417
 30
0.0
 11
-700.150508
 21
1033.216629
 31
0.0
  0
LINE
  5
349
100
AcDbEntity
  8
035-DWG
100
AcDbLine
 10
-696.731596
 20
1020.351749
 30
0.0
 11
-701.32524
 21
1033.0938
 31
0.0
  0
ARC
  5
34A
100
AcDbEntity
  8
035-DWG
100
AcDbCircle
 10
-701.795607
 20
1032.924228
 30
0.0
 40
0.5
100
AcDbArc
 50
19.82477
 51
90.0
  0
ARC
  5
34B
100
AcDbEntity
  8
025-DWG
100
AcDbCircle
 10
-701.278517
 20
1032.807245
 30
0.0
 40
1.2
100
AcDbArc
 50
19.947183
 51
90.0
  0
ARC
  5
34C
100
AcDbEntity
  8
035-DWG
100
AcDbCircle
 10
-695.602715
 20
1020.758723
 30
0.0
 40
1.2
100
AcDbArc
 50
199.82477
 51
271.253741
  0
ARC
  5
34D
100
AcDbEntity
  8
035-DWG
100
AcDbCircle
 10
-695.053113
 20
1020.636993
 30
0.0
 40
0.5
100
AcDbArc
 50
199.947183
 51
271.391291
  0
ARC
  5
34E
100
AcDbEntity
  8
035-DWG
100
AcDbCircle
 10
-695.031481
 20
1033.713109
 30
0.0
 40
0.5
100
AcDbArc
 50
196.94554
 51
270.699644
  0
LINE
  5
34F
100
AcDbEntity
  8
025-DWG
100
AcDbLine
 10
-695.040972
 20
1020.137141
 30
0.0
 11
-695.025375
 21
1033.213147
 31
0.0
  0
LINE
  5
350
100
AcDbEntity
  8
025-DWG
100
AcDbLine
 10
-695.523116
 20
1020.466417
 30
0.0
 11
-695.509772
 21
1033.567378
 31
0.0
  0
LINE
  5
351
100
AcDbEntity
  8
035-DWG
100
AcDbLine
 10
-701.32628
 20
1049.74003
 30
0.0
 11
-743.562446
 21
1049.74003
 31
0.0
  0
LINE
  5
352
100
AcDbEntity
  8
035-DWG
100
AcDbLine
 10
-743.96892
 20
1049.669091
 30
0.0
 11
-756.033038
 21
1049.669091
 31
0.0
  0
ARC
  5
353
100
AcDbEntity
  8
035-DWG
100
AcDbCircle
 10
-743.562446
 20
1048.54003
 30
0.0
 40
1.2
100
AcDbArc
 50
90.0
 51
163.05446
  0
ARC
  5
354
100
AcDbEntity
  8
035-DWG
100
AcDbCircle
 10
-701.32628
 20
1048.54003
 30
0.0
 40
1.2
100
AcDbArc
 50
16.94554
 51
90.0
  0
LINE
  5
355
100
AcDbEntity
  8
035-DWG
100
AcDbLine
 10
-691.309427
 20
1045.419091
 30
0.0
 11
-688.855688
 21
1049.669091
 31
0.0
  0
ARC
  5
356
100
AcDbEntity
  8
035-DWG
100
AcDbCircle
 10
-689.144363
 20
1044.169091
 30
0.0
 40
2.5
100
AcDbArc
 50
150.0
 51
270.0
  0
LINE
  5
357
100
AcDbEntity
  8
035-DWG
100
AcDbLine
 10
-681.610125
 20
1019.864669
 30
0.0
 11
-681.610125
 21
1020.463341
 31
0.0
  0
ARC
  5
358
100
AcDbEntity
  8
035-DWG
100
AcDbCircle
 10
-700.026465
 20
1021.47786
 30
0.0
 40
18.444262
100
AcDbArc
 50
356.846877
 51
39.963931
  0
LINE
  5
359
100
AcDbEntity
  8
035-DWG
100
AcDbLine
 10
-562.612992
 20
1002.669091
 30
0.0
 11
-600.441419
 21
1040.497518
 31
0.0
  0
ARC
  5
35A
100
AcDbEntity
  8
035-DWG
100
AcDbCircle
 10
-603.269846
 20
1037.669091
 30
0.0
 40
4.0
100
AcDbArc
 50
45.0
 51
90.0
  0
LINE
  5
35B
100
AcDbEntity
  8
035-DWG
100
AcDbLine
 10
-518.29803
 20
571.907974
 30
0.421745
 11
-518.29803
 21
826.90352
 31
0.421745
  0
LINE
  5
35C
100
AcDbEntity
  8
035-DWG
100
AcDbLine
 10
-525.818139
 20
569.197472
 30
0.421745
 11
-525.818139
 21
826.245596
 31
0.421745
  0
LINE
  5
35D
100
AcDbEntity
  8
035-DWG
100
AcDbLine
 10
-538.602871
 20
577.529728
 30
0.421745
 11
-538.602871
 21
825.127076
 31
0.421745
  0
LINE
  5
35E
100
AcDbEntity
  8
025-DWG
100
AcDbLine
 10
-526.977484
 20
835.726348
 30
0.421745
 11
-527.97003
 21
835.726348
 31
0.421745
  0
LWPOLYLINE
  5
35F
100
AcDbEntity
  8
025-DWG
100
AcDbPolyline
 90
        6
 70
     0
 43
0.0
 38
0.421745
 10
-527.690639
 20
835.482978
 10
-527.624878
 20
835.339929
 10
-527.489456
 20
835.251519
 10
-527.336099
 20
835.251519
 10
-527.223385
 20
835.339929
 10
-527.194366
 20
835.482978
  0
LINE
  5
360
100
AcDbEntity
  8
025-DWG
100
AcDbLine
 10
-525.49026
 20
836.226177
 30
0.421745
 11
-538.658139
 21
836.226177
 31
0.421745
  0
LINE
  5
361
100
AcDbEntity
  8
035-DWG
100
AcDbLine
 10
-538.61064
 20
837.2
 30
0.421745
 11
-525.612087
 21
837.2
 31
0.421745
  0
LWPOLYLINE
  5
362
100
AcDbEntity
  8
035-DWG
100
AcDbPolyline
 90
        5
 70
     0
 43
0.0
 38
0.421745
 10
-514.909247
 20
827.2
 10
-515.509642
 20
827.147472
 10
-517.283437
 20
826.992285
 10
-520.149714
 20
826.741519
 10
-539.283682
 20
825.067513
  0
LINE
  5
363
100
AcDbEntity
  8
035-DWG
100
AcDbLine
 10
-519.771106
 20
837.7
 30
0.421745
 11
-529.771106
 21
837.7
 31
0.421745
  0
LINE
  5
364
100
AcDbEntity
  8
035-DWG
100
AcDbLine
 10
-536.694363
 20
838.2
 30
0.421745
 11
-536.694363
 21
837.2
 31
0.421745
  0
LINE
  5
365
100
AcDbEntity
  8
025-DWG
100
AcDbLine
 10
-535.910399
 20
835.726348
 30
0.421745
 11
-536.902945
 21
835.726348
 31
0.421745
  0
LWPOLYLINE
  5
366
100
AcDbEntity
  8
025-DWG
100
AcDbPolyline
 90
        6
 70
     0
 43
0.0
 38
0.421745
 10
-536.623554
 20
835.482978
 10
-536.557794
 20
835.339929
 10
-536.422371
 20
835.251519
 10
-536.269015
 20
835.251519
 10
-536.1563
 20
835.339929
 10
-536.127281
 20
835.482978
  0
LWPOLYLINE
  5
367
100
AcDbEntity
  8
025-DWG
100
AcDbPolyline
 90
        3
 70
     0
 43
0.0
 38
0.421745
 10
-529.179458
 20
835.482978
 10
-529.128881
 20
835.655067
 10
-528.962576
 20
835.726348
  0
LINE
  5
368
100
AcDbEntity
  8
025-DWG
100
AcDbLine
 10
-528.962576
 20
835.726348
 30
0.421745
 11
-529.955122
 21
835.726348
 31
0.421745
  0
LINE
  5
369
100
AcDbEntity
  8
025-DWG
100
AcDbLine
 10
-528.184953
 20
835.453309
 30
0.421745
 11
-528.154916
 21
826.041154
 31
0.421745
  0
LINE
  5
36A
100
AcDbEntity
  8
025-DWG
100
AcDbLine
 10
-527.690639
 20
835.482978
 30
0.421745
 11
-527.660646
 21
826.084397
 31
0.421745
  0
LINE
  5
36B
100
AcDbEntity
  8
025-DWG
100
AcDbLine
 10
-528.683185
 20
835.482978
 30
0.421745
 11
-528.652915
 21
825.997585
 31
0.421745
  0
LINE
  5
36C
100
AcDbEntity
  8
025-DWG
100
AcDbLine
 10
-527.97003
 20
835.726348
 30
0.421745
 11
-528.962576
 21
835.726348
 31
0.421745
  0
LWPOLYLINE
  5
36D
100
AcDbEntity
  8
025-DWG
100
AcDbPolyline
 90
        3
 70
     0
 43
0.0
 38
0.421745
 10
-528.186912
 20
835.482978
 10
-528.136335
 20
835.655067
 10
-527.97003
 20
835.726348
  0
LWPOLYLINE
  5
36E
100
AcDbEntity
  8
025-DWG
100
AcDbPolyline
 90
        6
 70
     0
 43
0.0
 38
0.421745
 10
-528.683185
 20
835.482978
 10
-528.617424
 20
835.339929
 10
-528.482002
 20
835.251519
 10
-528.328645
 20
835.251519
 10
-528.215931
 20
835.339929
 10
-528.186912
 20
835.482978
  0
LWPOLYLINE
  5
36F
100
AcDbEntity
  8
025-DWG
100
AcDbPolyline
 90
        3
 70
     0
 43
0.0
 38
0.421745
 10
-528.962576
 20
835.726348
 10
-528.777963
 20
835.655067
 10
-528.683185
 20
835.482978
  0
LWPOLYLINE
  5
370
100
AcDbEntity
  8
025-DWG
100
AcDbPolyline
 90
        4
 70
     0
 43
0.0
 38
0.421745
 10
-527.97003
 20
835.726348
 10
-527.841774
 20
835.693743
 10
-527.73951
 20
835.604663
 10
-527.690639
 20
835.482978
  0
LINE
  5
371
100
AcDbEntity
  8
025-DWG
100
AcDbLine
 10
-532.155137
 20
835.453309
 30
0.421745
 11
-532.123992
 21
825.693905
 31
0.421745
  0
LINE
  5
372
100
AcDbEntity
  8
025-DWG
100
AcDbLine
 10
-533.147683
 20
835.453309
 30
0.421745
 11
-533.116262
 21
825.607093
 31
0.421745
  0
LINE
  5
373
100
AcDbEntity
  8
025-DWG
100
AcDbLine
 10
-534.14023
 20
835.453309
 30
0.421745
 11
-534.108531
 21
825.52028
 31
0.421745
  0
LINE
  5
374
100
AcDbEntity
  8
025-DWG
100
AcDbLine
 10
-535.132776
 20
835.453309
 30
0.421745
 11
-535.1008
 21
825.433468
 31
0.421745
  0
LINE
  5
375
100
AcDbEntity
  8
025-DWG
100
AcDbLine
 10
-536.125322
 20
835.453309
 30
0.421745
 11
-536.093069
 21
825.346656
 31
0.421745
  0
LINE
  5
376
100
AcDbEntity
  8
025-DWG
100
AcDbLine
 10
-535.631008
 20
835.482978
 30
0.421745
 11
-535.598799
 21
825.389899
 31
0.421745
  0
LINE
  5
377
100
AcDbEntity
  8
025-DWG
100
AcDbLine
 10
-534.638462
 20
835.482978
 30
0.421745
 11
-534.606529
 21
825.476711
 31
0.421745
  0
LINE
  5
378
100
AcDbEntity
  8
025-DWG
100
AcDbLine
 10
-533.645916
 20
835.482978
 30
0.421745
 11
-533.61426
 21
825.563523
 31
0.421745
  0
LINE
  5
379
100
AcDbEntity
  8
025-DWG
100
AcDbLine
 10
-532.65337
 20
835.482978
 30
0.421745
 11
-532.621991
 21
825.650336
 31
0.421745
  0
LINE
  5
37A
100
AcDbEntity
  8
025-DWG
100
AcDbLine
 10
-531.660824
 20
835.482978
 30
0.421745
 11
-531.629722
 21
825.737148
 31
0.421745
  0
LINE
  5
37B
100
AcDbEntity
  8
025-DWG
100
AcDbLine
 10
-531.162591
 20
835.453309
 30
0.421745
 11
-531.131723
 21
825.780717
 31
0.421745
  0
LINE
  5
37C
100
AcDbEntity
  8
025-DWG
100
AcDbLine
 10
-530.170045
 20
835.453309
 30
0.421745
 11
-530.139454
 21
825.86753
 31
0.421745
  0
LINE
  5
37D
100
AcDbEntity
  8
025-DWG
100
AcDbLine
 10
-529.177499
 20
835.453309
 30
0.421745
 11
-529.147185
 21
825.954342
 31
0.421745
  0
LINE
  5
37E
100
AcDbEntity
  8
025-DWG
100
AcDbLine
 10
-529.675731
 20
835.482978
 30
0.421745
 11
-529.645184
 21
825.910773
 31
0.421745
  0
LINE
  5
37F
100
AcDbEntity
  8
025-DWG
100
AcDbLine
 10
-530.668277
 20
835.482978
 30
0.421745
 11
-530.637453
 21
825.82396
 31
0.421745
  0
LINE
  5
380
100
AcDbEntity
  8
025-DWG
100
AcDbLine
 10
-531.940215
 20
835.726348
 30
0.421745
 11
-532.932761
 21
835.726348
 31
0.421745
  0
LWPOLYLINE
  5
381
100
AcDbEntity
  8
025-DWG
100
AcDbPolyline
 90
        4
 70
     0
 43
0.0
 38
0.421745
 10
-532.932761
 20
835.726348
 10
-532.804505
 20
835.693743
 10
-532.702241
 20
835.604663
 10
-532.65337
 20
835.482978
  0
LWPOLYLINE
  5
382
100
AcDbEntity
  8
025-DWG
100
AcDbPolyline
 90
        3
 70
     0
 43
0.0
 38
0.421745
 10
-532.157097
 20
835.482978
 10
-532.106519
 20
835.655067
 10
-531.940215
 20
835.726348
  0
LWPOLYLINE
  5
383
100
AcDbEntity
  8
025-DWG
100
AcDbPolyline
 90
        6
 70
     0
 43
0.0
 38
0.421745
 10
-532.65337
 20
835.482978
 10
-532.587609
 20
835.339929
 10
-532.452187
 20
835.251519
 10
-532.29883
 20
835.251519
 10
-532.186116
 20
835.339929
 10
-532.157097
 20
835.482978
  0
LWPOLYLINE
  5
384
100
AcDbEntity
  8
025-DWG
100
AcDbPolyline
 90
        4
 70
     0
 43
0.0
 38
0.421745
 10
-531.940215
 20
835.726348
 10
-531.811959
 20
835.693743
 10
-531.709695
 20
835.604663
 10
-531.660824
 20
835.482978
  0
LINE
  5
385
100
AcDbEntity
  8
025-DWG
100
AcDbLine
 10
-529.955122
 20
835.726348
 30
0.421745
 11
-530.947668
 21
835.726348
 31
0.421745
  0
LWPOLYLINE
  5
386
100
AcDbEntity
  8
025-DWG
100
AcDbPolyline
 90
        3
 70
     0
 43
0.0
 38
0.421745
 10
-531.164551
 20
835.482978
 10
-531.113973
 20
835.655067
 10
-530.947668
 20
835.726348
  0
LWPOLYLINE
  5
387
100
AcDbEntity
  8
025-DWG
100
AcDbPolyline
 90
        3
 70
     0
 43
0.0
 38
0.421745
 10
-530.172004
 20
835.482978
 10
-530.121427
 20
835.655067
 10
-529.955122
 20
835.726348
  0
LWPOLYLINE
  5
388
100
AcDbEntity
  8
025-DWG
100
AcDbPolyline
 90
        6
 70
     0
 43
0.0
 38
0.421745
 10
-530.668277
 20
835.482978
 10
-530.602517
 20
835.339929
 10
-530.467095
 20
835.251519
 10
-530.313738
 20
835.251519
 10
-530.201023
 20
835.339929
 10
-530.172004
 20
835.482978
  0
LWPOLYLINE
  5
389
100
AcDbEntity
  8
025-DWG
100
AcDbPolyline
 90
        4
 70
     0
 43
0.0
 38
0.421745
 10
-530.947668
 20
835.726348
 10
-530.819413
 20
835.693743
 10
-530.717149
 20
835.604663
 10
-530.668277
 20
835.482978
  0
LWPOLYLINE
  5
38A
100
AcDbEntity
  8
025-DWG
100
AcDbPolyline
 90
        4
 70
     0
 43
0.0
 38
0.421745
 10
-529.955122
 20
835.726348
 10
-529.826867
 20
835.693743
 10
-529.724602
 20
835.604663
 10
-529.675731
 20
835.482978
  0
LWPOLYLINE
  5
38B
100
AcDbEntity
  8
025-DWG
100
AcDbPolyline
 90
        7
 70
     0
 43
0.0
 38
0.421745
 10
-529.675731
 20
835.482978
 10
-529.62686
 20
835.361293
 10
-529.524596
 20
835.272214
 10
-529.39634
 20
835.239608
 10
-529.276459
 20
835.272214
 10
-529.197075
 20
835.361293
 10
-529.179458
 20
835.482978
  0
LINE
  5
38C
100
AcDbEntity
  8
025-DWG
100
AcDbLine
 10
-530.947668
 20
835.726348
 30
0.421745
 11
-531.940215
 21
835.726348
 31
0.421745
  0
LWPOLYLINE
  5
38D
100
AcDbEntity
  8
025-DWG
100
AcDbPolyline
 90
        6
 70
     0
 43
0.0
 38
0.421745
 10
-531.660824
 20
835.482978
 10
-531.595063
 20
835.339929
 10
-531.459641
 20
835.251519
 10
-531.306284
 20
835.251519
 10
-531.193569
 20
835.339929
 10
-531.164551
 20
835.482978
  0
LWPOLYLINE
  5
38E
100
AcDbEntity
  8
025-DWG
100
AcDbPolyline
 90
        3
 70
     0
 43
0.0
 38
0.421745
 10
-536.127281
 20
835.482978
 10
-536.076704
 20
835.655067
 10
-535.910399
 20
835.726348
  0
LWPOLYLINE
  5
38F
100
AcDbEntity
  8
025-DWG
100
AcDbPolyline
 90
        4
 70
     0
 43
0.0
 38
0.421745
 10
-535.910399
 20
835.726348
 10
-535.782144
 20
835.693743
 10
-535.679879
 20
835.604663
 10
-535.631008
 20
835.482978
  0
LINE
  5
390
100
AcDbEntity
  8
025-DWG
100
AcDbLine
 10
-533.925307
 20
835.726348
 30
0.421745
 11
-534.917853
 21
835.726348
 31
0.421745
  0
LWPOLYLINE
  5
391
100
AcDbEntity
  8
025-DWG
100
AcDbPolyline
 90
        3
 70
     0
 43
0.0
 38
0.421745
 10
-535.134735
 20
835.482978
 10
-535.084158
 20
835.655067
 10
-534.917853
 20
835.726348
  0
LWPOLYLINE
  5
392
100
AcDbEntity
  8
025-DWG
100
AcDbPolyline
 90
        4
 70
     0
 43
0.0
 38
0.421745
 10
-534.917853
 20
835.726348
 10
-534.789597
 20
835.693743
 10
-534.687333
 20
835.604663
 10
-534.638462
 20
835.482978
  0
LWPOLYLINE
  5
393
100
AcDbEntity
  8
025-DWG
100
AcDbPolyline
 90
        3
 70
     0
 43
0.0
 38
0.421745
 10
-534.142189
 20
835.482978
 10
-534.091612
 20
835.655067
 10
-533.925307
 20
835.726348
  0
LWPOLYLINE
  5
394
100
AcDbEntity
  8
025-DWG
100
AcDbPolyline
 90
        6
 70
     0
 43
0.0
 38
0.421745
 10
-534.638462
 20
835.482978
 10
-534.572701
 20
835.339929
 10
-534.437279
 20
835.251519
 10
-534.283922
 20
835.251519
 10
-534.171208
 20
835.339929
 10
-534.142189
 20
835.482978
  0
LWPOLYLINE
  5
395
100
AcDbEntity
  8
025-DWG
100
AcDbPolyline
 90
        3
 70
     0
 43
0.0
 38
0.421745
 10
-533.925307
 20
835.726348
 10
-533.740694
 20
835.655067
 10
-533.645916
 20
835.482978
  0
LWPOLYLINE
  5
396
100
AcDbEntity
  8
025-DWG
100
AcDbPolyline
 90
        3
 70
     0
 43
0.0
 38
0.421745
 10
-533.149643
 20
835.482978
 10
-533.099066
 20
835.655067
 10
-532.932761
 20
835.726348
  0
LINE
  5
397
100
AcDbEntity
  8
025-DWG
100
AcDbLine
 10
-532.932761
 20
835.726348
 30
0.421745
 11
-533.925307
 21
835.726348
 31
0.421745
  0
LWPOLYLINE
  5
398
100
AcDbEntity
  8
025-DWG
100
AcDbPolyline
 90
        6
 70
     0
 43
0.0
 38
0.421745
 10
-533.645916
 20
835.482978
 10
-533.580155
 20
835.339929
 10
-533.444733
 20
835.251519
 10
-533.291376
 20
835.251519
 10
-533.178662
 20
835.339929
 10
-533.149643
 20
835.482978
  0
LINE
  5
399
100
AcDbEntity
  8
025-DWG
100
AcDbLine
 10
-534.917853
 20
835.726348
 30
0.421745
 11
-535.910399
 21
835.726348
 31
0.421745
  0
LWPOLYLINE
  5
39A
100
AcDbEntity
  8
025-DWG
100
AcDbPolyline
 90
        6
 70
     0
 43
0.0
 38
0.421745
 10
-535.631008
 20
835.482978
 10
-535.565247
 20
835.339929
 10
-535.429825
 20
835.251519
 10
-535.276469
 20
835.251519
 10
-535.163754
 20
835.339929
 10
-535.134735
 20
835.482978
  0
LINE
  5
39B
100
AcDbEntity
  8
035-DWG
100
AcDbLine
 10
-529.771106
 20
837.2
 30
0.421745
 11
-529.771106
 21
837.7
 31
0.421745
  0
LWPOLYLINE
  5
39C
100
AcDbEntity
  8
035-DWG
100
AcDbPolyline
 90
        7
 70
     0
 43
0.0
 38
0.421745
 10
-539.219045
 20
836.215966
 10
-539.204092
 20
836.48205
 10
-539.151329
 20
836.753555
 10
-539.087766
 20
836.906894
 10
-538.949994
 20
837.075989
 10
-538.788502
 20
837.168868
 10
-538.61064
 20
837.2
  0
LWPOLYLINE
  5
39D
100
AcDbEntity
  8
025-DWG
100
AcDbPolyline
 90
        6
 70
     0
 43
0.0
 38
0.421745
 10
-538.61064
 20
837.2
 10
-538.618415
 20
837.185822
 10
-538.64056
 20
836.9712
 10
-538.652177
 20
836.679784
 10
-538.656927
 20
836.422778
 10
-538.658139
 20
836.226177
  0
LWPOLYLINE
  5
39E
100
AcDbEntity
  8
025-DWG
100
AcDbPolyline
 90
      124
 70
     0
 43
0.0
 38
0.421745
 10
-538.695892
 20
829.694243
 10
-538.696108
 20
829.657018
 10
-538.696325
 20
829.619794
 10
-538.696541
 20
829.58257
 10
-538.696757
 20
829.545346
 10
-538.696973
 20
829.508122
 10
-538.697189
 20
829.470898
 10
-538.697405
 20
829.433674
 10
-538.697621
 20
829.396451
 10
-538.697838
 20
829.359227
 10
-538.698054
 20
829.322004
 10
-538.69827
 20
829.284781
 10
-538.698486
 20
829.247558
 10
-538.698702
 20
829.210335
 10
-538.698919
 20
829.173112
 10
-538.699135
 20
829.13589
 10
-538.699351
 20
829.098667
 10
-538.699567
 20
829.061445
 10
-538.699784
 20
829.024222
 10
-538.7
 20
828.987
 10
-538.700216
 20
828.949778
 10
-538.700433
 20
828.912556
 10
-538.700649
 20
828.875335
 10
-538.700865
 20
828.838113
 10
-538.701082
 20
828.800892
 10
-538.701298
 20
828.76367
 10
-538.701514
 20
828.726449
 10
-538.701731
 20
828.689228
 10
-538.701947
 20
828.652007
 10
-538.702163
 20
828.614786
 10
-538.70238
 20
828.577566
 10
-538.702596
 20
828.540345
 10
-538.702813
 20
828.503125
 10
-538.703029
 20
828.465904
 10
-538.703246
 20
828.428684
 10
-538.703462
 20
828.391464
 10
-538.703678
 20
828.354244
 10
-538.703895
 20
828.317024
 10
-538.704111
 20
828.279805
 10
-538.704328
 20
828.242585
 10
-538.704544
 20
828.205366
 10
-538.704761
 20
828.168146
 10
-538.704977
 20
828.130927
 10
-538.705194
 20
828.093708
 10
-538.70541
 20
828.056489
 10
-538.705627
 20
828.019271
 10
-538.705844
 20
827.982052
 10
-538.70606
 20
827.944834
 10
-538.706277
 20
827.907615
 10
-538.706493
 20
827.870397
 10
-538.70671
 20
827.833179
 10
-538.706927
 20
827.795961
 10
-538.707143
 20
827.758743
 10
-538.70736
 20
827.721525
 10
-538.707576
 20
827.684308
 10
-538.707793
 20
827.64709
 10
-538.70801
 20
827.609873
 10
-538.708226
 20
827.572656
 10
-538.708443
 20
827.535439
 10
-538.70866
 20
827.498222
 10
-538.708876
 20
827.461005
 10
-538.709093
 20
827.423788
 10
-538.70931
 20
827.386572
 10
-538.709527
 20
827.349355
 10
-538.709743
 20
827.312139
 10
-538.70996
 20
827.274923
 10
-538.710177
 20
827.237707
 10
-538.710394
 20
827.200491
 10
-538.71061
 20
827.163275
 10
-538.710827
 20
827.126059
 10
-538.711044
 20
827.088844
 10
-538.711261
 20
827.051628
 10
-538.711478
 20
827.014413
 10
-538.711695
 20
826.977198
 10
-538.711911
 20
826.939983
 10
-538.712128
 20
826.902768
 10
-538.712345
 20
826.865553
 10
-538.712562
 20
826.828339
 10
-538.712779
 20
826.791124
 10
-538.712996
 20
826.75391
 10
-538.713213
 20
826.716696
 10
-538.71343
 20
826.679481
 10
-538.713646
 20
826.642268
 10
-538.713863
 20
826.605054
 10
-538.71408
 20
826.56784
 10
-538.714297
 20
826.530626
 10
-538.714514
 20
826.493413
 10
-538.714731
 20
826.4562
 10
-538.714948
 20
826.418986
 10
-538.715165
 20
826.381773
 10
-538.715382
 20
826.34456
 10
-538.715599
 20
826.307348
 10
-538.715816
 20
826.270135
 10
-538.716033
 20
826.232922
 10
-538.71625
 20
826.19571
 10
-538.716467
 20
826.158498
 10
-538.716684
 20
826.121285
 10
-538.716901
 20
826.084073
 10
-538.717119
 20
826.046862
 10
-538.717336
 20
826.00965
 10
-538.717553
 20
825.972438
 10
-538.71777
 20
825.935227
 10
-538.717987
 20
825.898015
 10
-538.718204
 20
825.860804
 10
-538.718421
 20
825.823593
 10
-538.718638
 20
825.786382
 10
-538.718856
 20
825.749171
 10
-538.719073
 20
825.71196
 10
-538.71929
 20
825.67475
 10
-538.719507
 20
825.637539
 10
-538.719724
 20
825.600329
 10
-538.719942
 20
825.563119
 10
-538.720159
 20
825.525908
 10
-538.720376
 20
825.488699
 10
-538.720593
 20
825.451489
 10
-538.720811
 20
825.414279
 10
-538.721028
 20
825.377069
 10
-538.721245
 20
825.33986
 10
-538.721462
 20
825.302651
 10
-538.72168
 20
825.265441
 10
-538.721897
 20
825.228232
 10
-538.722114
 20
825.191023
 10
-538.722332
 20
825.153815
 10
-538.722549
 20
825.116606
  0
LINE
  5
39F
100
AcDbEntity
  8
025-DWG
100
AcDbLine
 10
-538.695892
 20
829.694243
 30
0.421745
 11
-538.681295
 21
825.120215
 31
0.421745
  0
LWPOLYLINE
  5
3A0
100
AcDbEntity
  8
035-DWG
100
AcDbPolyline
 90
        3
 70
     0
 43
0.0
 38
0.421745
 10
-539.283682
 20
825.067513
 10
-539.251318
 20
830.628566
 10
-539.219045
 20
836.215966
  0
LINE
  5
3A1
100
AcDbEntity
  8
025-DWG
100
AcDbLine
 10
-537.117868
 20
835.453309
 30
0.421745
 11
-537.085338
 21
825.259843
 31
0.421745
  0
LINE
  5
3A2
100
AcDbEntity
  8
025-DWG
100
AcDbLine
 10
-538.110414
 20
835.453309
 30
0.421745
 11
-538.077607
 21
825.173031
 31
0.421745
  0
LINE
  5
3A3
100
AcDbEntity
  8
025-DWG
100
AcDbLine
 10
-538.592102
 20
835.419989
 30
0.421745
 11
-538.559267
 21
825.130891
 31
0.421745
  0
LINE
  5
3A4
100
AcDbEntity
  8
025-DWG
100
AcDbLine
 10
-537.6161
 20
835.482978
 30
0.421745
 11
-537.583337
 21
825.216274
 31
0.421745
  0
LINE
  5
3A5
100
AcDbEntity
  8
025-DWG
100
AcDbLine
 10
-536.623554
 20
835.482978
 30
0.421745
 11
-536.591068
 21
825.303086
 31
0.421745
  0
ELLIPSE
  5
3A6
100
AcDbEntity
  8
025-DWG
100
AcDbEllipse
 10
-538.719053
 20
836.213088
 30
0.421745
 11
-0.4999917225103688
 21
0.002877050766737
 31
0.0
210
0.0
220
0.0
230
-1.0
 40
0.027079
 41
-0.0000000000000275
 42
1.692773513602107
  0
LWPOLYLINE
  5
3A7
100
AcDbEntity
  8
025-DWG
100
AcDbPolyline
 90
       14
 70
     0
 43
0.0
 38
0.421745
 10
-538.658139
 20
836.226177
 10
-538.658361
 20
836.187728
 10
-538.658582
 20
836.149279
 10
-538.658803
 20
836.11083
 10
-538.659025
 20
836.072381
 10
-538.659246
 20
836.033932
 10
-538.659467
 20
835.995484
 10
-538.659688
 20
835.957036
 10
-538.65991
 20
835.918587
 10
-538.660131
 20
835.880139
 10
-538.660352
 20
835.841691
 10
-538.660574
 20
835.803243
 10
-538.660795
 20
835.764796
 10
-538.661017
 20
835.726348
  0
LWPOLYLINE
  5
3A8
100
AcDbEntity
  8
025-DWG
100
AcDbPolyline
 90
        2
 70
     0
 43
0.0
 38
0.421745
 10
-538.716345
 20
835.729343
 10
-538.661017
 20
835.726348
  0
LINE
  5
3A9
100
AcDbEntity
  8
025-DWG
100
AcDbLine
 10
-537.895491
 20
835.726348
 30
0.421745
 11
-538.661017
 21
835.726348
 31
0.421745
  0
LWPOLYLINE
  5
3AA
100
AcDbEntity
  8
025-DWG
100
AcDbPolyline
 90
        4
 70
     0
 43
0.0
 38
0.421745
 10
-537.895491
 20
835.726348
 10
-537.767236
 20
835.693743
 10
-537.664972
 20
835.604663
 10
-537.6161
 20
835.482978
  0
LINE
  5
3AB
100
AcDbEntity
  8
025-DWG
100
AcDbLine
 10
-538.716345
 20
835.729343
 30
0.421745
 11
-538.592102
 21
835.419989
 31
0.421745
  0
LWPOLYLINE
  5
3AC
100
AcDbEntity
  8
025-DWG
100
AcDbPolyline
 90
        3
 70
     0
 43
0.0
 38
0.421745
 10
-538.112374
 20
835.482978
 10
-538.061796
 20
835.655067
 10
-537.895491
 20
835.726348
  0
LWPOLYLINE
  5
3AD
100
AcDbEntity
  8
025-DWG
100
AcDbPolyline
 90
        6
 70
     0
 43
0.0
 38
0.421745
 10
-538.592102
 20
835.419989
 10
-538.503319
 20
835.302119
 10
-538.368458
 20
835.242604
 10
-538.231032
 20
835.260649
 10
-538.135383
 20
835.350429
 10
-538.112374
 20
835.482978
  0
LWPOLYLINE
  5
3AE
100
AcDbEntity
  8
025-DWG
100
AcDbPolyline
 90
        3
 70
     0
 43
0.0
 38
0.421745
 10
-537.119827
 20
835.482978
 10
-537.06925
 20
835.655067
 10
-536.902945
 20
835.726348
  0
LWPOLYLINE
  5
3AF
100
AcDbEntity
  8
025-DWG
100
AcDbPolyline
 90
        4
 70
     0
 43
0.0
 38
0.421745
 10
-536.902945
 20
835.726348
 10
-536.77469
 20
835.693743
 10
-536.672426
 20
835.604663
 10
-536.623554
 20
835.482978
  0
LINE
  5
3B0
100
AcDbEntity
  8
025-DWG
100
AcDbLine
 10
-536.902945
 20
835.726348
 30
0.421745
 11
-537.895491
 21
835.726348
 31
0.421745
  0
LWPOLYLINE
  5
3B1
100
AcDbEntity
  8
025-DWG
100
AcDbPolyline
 90
        6
 70
     0
 43
0.0
 38
0.421745
 10
-537.6161
 20
835.482978
 10
-537.55034
 20
835.339929
 10
-537.414918
 20
835.251519
 10
-537.261561
 20
835.251519
 10
-537.148846
 20
835.339929
 10
-537.119827
 20
835.482978
  0
LWPOLYLINE
  5
3B2
100
AcDbEntity
  8
025-DWG
100
AcDbPolyline
 90
        2
 70
     0
 43
0.0
 38
0.421745
 10
-538.695892
 20
829.694243
 10
-538.716345
 20
835.729343
  0
LINE
  5
3B3
100
AcDbEntity
  8
025-DWG
100
AcDbLine
 10
-527.192406
 20
835.453309
 30
0.421745
 11
-527.162647
 21
826.127966
 31
0.421745
  0
LWPOLYLINE
  5
3B4
100
AcDbEntity
  8
025-DWG
100
AcDbPolyline
 90
        4
 70
     0
 43
0.0
 38
0.421745
 10
-527.194366
 20
835.482978
 10
-527.176749
 20
835.604663
 10
-527.097365
 20
835.693743
 10
-526.977484
 20
835.726348
  0
ELLIPSE
  5
3B5
100
AcDbEntity
  8
025-DWG
100
AcDbEllipse
 10
-525.612087
 20
836.2
 30
0.421745
 11
0.0
 21
1.0
 31
0.0
210
0.0
220
0.0
230
-1.0
 40
0.121869
 41
0.0
 42
1.54461638801498
  0
ELLIPSE
  5
3B6
100
AcDbEntity
  8
025-DWG
100
AcDbEllipse
 10
-524.799875
 20
836.2
 30
0.421745
 11
0.0
 21
0.9999999999999998
 31
0.0
210
0.0
220
0.0
230
-1.0
 40
0.654173
 41
-0.0000000000000004
 42
1.544616388014984
  0
LINE
  5
3B7
100
AcDbEntity
  8
025-DWG
100
AcDbLine
 10
-525.49026
 20
836.226177
 30
0.421745
 11
-525.458509
 21
826.277059
 31
0.421745
  0
LINE
  5
3B8
100
AcDbEntity
  8
025-DWG
100
AcDbLine
 10
-526.127491
 20
826.218531
 30
0.421745
 11
-526.157833
 21
835.726348
 31
0.421745
  0
LINE
  5
3B9
100
AcDbEntity
  8
025-DWG
100
AcDbLine
 10
-526.202186
 20
835.419989
 30
0.421745
 11
-526.172809
 21
826.214566
 31
0.421745
  0
LINE
  5
3BA
100
AcDbEntity
  8
025-DWG
100
AcDbLine
 10
-526.698093
 20
835.482978
 30
0.421745
 11
-526.668377
 21
826.171209
 31
0.421745
  0
LINE
  5
3BB
100
AcDbEntity
  8
025-DWG
100
AcDbLine
 10
-524.145927
 20
836.226177
 30
0.421745
 11
-523.977716
 21
826.406612
 31
0.421745
  0
LINE
  5
3BC
100
AcDbEntity
  8
025-DWG
100
AcDbLine
 10
-525.49026
 20
836.226177
 30
0.421745
 11
-524.145927
 21
836.226177
 31
0.421745
  0
LINE
  5
3BD
100
AcDbEntity
  8
025-DWG
100
AcDbLine
 10
-526.202186
 20
835.419989
 30
0.421745
 11
-526.157833
 21
835.726348
 31
0.421745
  0
LWPOLYLINE
  5
3BE
100
AcDbEntity
  8
025-DWG
100
AcDbPolyline
 90
        6
 70
     0
 43
0.0
 38
0.421745
 10
-526.698093
 20
835.482978
 10
-526.641039
 20
835.350429
 10
-526.52233
 20
835.260649
 10
-526.38027
 20
835.242604
 10
-526.260694
 20
835.302119
 10
-526.202186
 20
835.419989
  0
LINE
  5
3BF
100
AcDbEntity
  8
035-DWG
100
AcDbLine
 10
-524.799875
 20
837.2
 30
0.421745
 11
-525.612087
 21
837.2
 31
0.421745
  0
LINE
  5
3C0
100
AcDbEntity
  8
025-DWG
100
AcDbLine
 10
-526.157833
 20
835.726348
 30
0.421745
 11
-526.977484
 21
835.726348
 31
0.421745
  0
LWPOLYLINE
  5
3C1
100
AcDbEntity
  8
025-DWG
100
AcDbPolyline
 90
        4
 70
     0
 43
0.0
 38
0.421745
 10
-526.977484
 20
835.726348
 10
-526.849228
 20
835.693743
 10
-526.746964
 20
835.604663
 10
-526.698093
 20
835.482978
  0
ARC
  5
3C2
100
AcDbEntity
  8
035-DWG
100
AcDbCircle
 10
-516.145263
 20
836.2
 30
0.421745
 40
1.0
100
AcDbArc
 50
1.5
 51
90.0
  0
LINE
  5
3C3
100
AcDbEntity
  8
035-DWG
100
AcDbLine
 10
-515.145606
 20
836.226177
 30
0.421745
 11
-514.909247
 21
827.2
 31
0.421745
  0
LINE
  5
3C4
100
AcDbEntity
  8
035-DWG
100
AcDbLine
 10
-519.771106
 20
837.2
 30
0.421745
 11
-519.771106
 21
837.7
 31
0.421745
  0
LINE
  5
3C5
100
AcDbEntity
  8
035-DWG
100
AcDbLine
 10
-516.145263
 20
837.2
 30
0.421745
 11
-524.799875
 21
837.2
 31
0.421745
  0
LINE
  5
3C6
100
AcDbEntity
  8
025-DWG
100
AcDbLine
 10
-524.145927
 20
836.226177
 30
0.421745
 11
-515.145606
 21
836.226177
 31
0.421745
  0
ENDSEC
  0
SECTION
  2
OBJECTS
  0
DICTIONARY
  5
1A
100
AcDbDictionary
  3
ACAD_GROUP
350
18
  3
ACAD_MLINESTYLE
350
19
  0
DICTIONARY
  5
18
102
{ACAD_REACTORS
330
1A
102
}
100
AcDbDictionary
  0
DICTIONARY
  5
19
102
{ACAD_REACTORS
330
1A
102
}
100
AcDbDictionary
  3
STANDARD
350
1D
  0
MLINESTYLE
  5
1D
102
{ACAD_REACTORS
330
19
102
}
100
AcDbMlineStyle
  2
STANDARD
 70
     0
  3

 62
     0
 51
90.0
 52
90.0
 71
     2
 49
0.5
 62
   256
  6
BYLAYER
 49
-0.5
 62
   256
  6
BYLAYER
  0
ENDSEC
  0
EOF
